  0
SECTION
  2
HEADER
  9
$ACADVER
  1
AC1021
  9
$ACADMAINTVER
 70
    50
  9
$DWGCODEPAGE
  3
ANSI_1252
  9
$TITLE
  1
ZIMA 050-100 / Internet 2D
  9
$CUSTOMPROPERTYTAG
  1
Manager
  9
$CUSTOMPROPERTY
  1

  9
$CUSTOMPROPERTYTAG
  1
Firma
  9
$CUSTOMPROPERTY
  1

  9
$CUSTOMPROPERTYTAG
  1
Kategorie
  9
$CUSTOMPROPERTY
  1

  9
$CUSTOMPROPERTYTAG
  1
Bauteilnummer
  9
$CUSTOMPROPERTY
  1
121699
  9
$CUSTOMPROPERTYTAG
  1
Bezeichnung
  9
$CUSTOMPROPERTY
  1
Zeparo
  9
$CUSTOMPROPERTYTAG
  1
Projekt
  9
$CUSTOMPROPERTY
  1

  9
$CUSTOMPROPERTYTAG
  1
Konstrukteur
  9
$CUSTOMPROPERTY
  1
SCG
  9
$CUSTOMPROPERTYTAG
  1
Ingenieur
  9
$CUSTOMPROPERTY
  1

  9
$CUSTOMPROPERTYTAG
  1
Bevollmächtigter
  9
$CUSTOMPROPERTY
  1

  9
$CUSTOMPROPERTYTAG
  1
Kostenstelle
  9
$CUSTOMPROPERTY
  1

  9
$CUSTOMPROPERTYTAG
  1
Zulieferer
  9
$CUSTOMPROPERTY
  1

  9
$CUSTOMPROPERTYTAG
  1
Benutzerstatus
  9
$CUSTOMPROPERTY
  1

  9
$CUSTOMPROPERTYTAG
  1
Konstruktionsstatus
  9
$CUSTOMPROPERTY
  1
InBearbeitung
  9
$CUSTOMPROPERTYTAG
  1
Kontrolliert von
  9
$CUSTOMPROPERTY
  1

  9
$CUSTOMPROPERTYTAG
  1
Konstruktion genehmigt von
  9
$CUSTOMPROPERTY
  1

  9
$CUSTOMPROPERTYTAG
  1
Fertigung genehmigt von
  9
$CUSTOMPROPERTY
  1

  9
$CUSTOMPROPERTYTAG
  1
Gewicht
  9
$CUSTOMPROPERTY
  1

  9
$CUSTOMPROPERTYTAG
  1
AeDatum1
  9
$CUSTOMPROPERTY
  1
  
  9
$CUSTOMPROPERTYTAG
  1
AeDesc1
  9
$CUSTOMPROPERTY
  1

  9
$CUSTOMPROPERTYTAG
  1
AeIDX1
  9
$CUSTOMPROPERTY
  1

  9
$CUSTOMPROPERTYTAG
  1
TolLange_Fein
  9
$CUSTOMPROPERTY
  1

  9
$CUSTOMPROPERTYTAG
  1
TolLange_Grob
  9
$CUSTOMPROPERTY
  1

  9
$CUSTOMPROPERTYTAG
  1
TolLange_Mittel
  9
$CUSTOMPROPERTY
  1
X
  9
$CUSTOMPROPERTYTAG
  1
TolWinkel_Fein
  9
$CUSTOMPROPERTY
  1

  9
$CUSTOMPROPERTYTAG
  1
TolWinkel_Grob
  9
$CUSTOMPROPERTY
  1
X
  9
$CUSTOMPROPERTYTAG
  1
ProtoTyp_NR
  9
$CUSTOMPROPERTY
  1
1
  9
$CUSTOMPROPERTYTAG
  1
AeDatum2
  9
$CUSTOMPROPERTY
  1
  
  9
$CUSTOMPROPERTYTAG
  1
AeDatum3
  9
$CUSTOMPROPERTY
  1
  
  9
$CUSTOMPROPERTYTAG
  1
AeDatum4
  9
$CUSTOMPROPERTY
  1
  
  9
$CUSTOMPROPERTYTAG
  1
AeDatum5
  9
$CUSTOMPROPERTY
  1
  
  9
$CUSTOMPROPERTYTAG
  1
AeDesc2
  9
$CUSTOMPROPERTY
  1

  9
$CUSTOMPROPERTYTAG
  1
AeDesc3
  9
$CUSTOMPROPERTY
  1

  9
$CUSTOMPROPERTYTAG
  1
AeDesc4
  9
$CUSTOMPROPERTY
  1

  9
$CUSTOMPROPERTYTAG
  1
AeDesc5
  9
$CUSTOMPROPERTY
  1

  9
$CUSTOMPROPERTYTAG
  1
AeIDX2
  9
$CUSTOMPROPERTY
  1

  9
$CUSTOMPROPERTYTAG
  1
AeIDX3
  9
$CUSTOMPROPERTY
  1

  9
$CUSTOMPROPERTYTAG
  1
AeIDX4
  9
$CUSTOMPROPERTY
  1

  9
$CUSTOMPROPERTYTAG
  1
AeIDX5
  9
$CUSTOMPROPERTY
  1

  9
$CUSTOMPROPERTYTAG
  1
Fachgeprüft_am
  9
$CUSTOMPROPERTY
  1

  9
$CUSTOMPROPERTYTAG
  1
Fachgeprüft_von
  9
$CUSTOMPROPERTY
  1

  9
$CUSTOMPROPERTYTAG
  1
ZeichnungsNummer
  9
$CUSTOMPROPERTY
  1

  9
$CUSTOMPROPERTYTAG
  1
AIMD_MATERIAL
  9
$CUSTOMPROPERTY
  1

  9
$CUSTOMPROPERTYTAG
  1
AIMD_WEIGHT
  9
$CUSTOMPROPERTY
  1
2.759
  9
$CUSTOMPROPERTYTAG
  1
AIMD_DESCRIPTION
  9
$CUSTOMPROPERTY
  1
Zeparo
  9
$CUSTOMPROPERTYTAG
  1
AIMD_ORIGIN
  9
$CUSTOMPROPERTY
  1

  9
$CUSTOMPROPERTYTAG
  1
AIMD_PARTNO
  9
$CUSTOMPROPERTY
  1
7880100
  9
$CUSTOMPROPERTYTAG
  1
AIMD_WEIGHT_UNIT
  9
$CUSTOMPROPERTY
  1
kg
  9
$CUSTOMPROPERTYTAG
  1
Einheit
  9
$CUSTOMPROPERTY
  1
Stk
  9
$CUSTOMPROPERTYTAG
  1
Massstab
  9
$CUSTOMPROPERTY
  1
1:2
  9
$INSBASE
 10
0.0
 20
0.0
 30
0.0
  9
$EXTMIN
 10
0.0
 20
0.0
 30
0.0
  9
$EXTMAX
 10
840.0
 20
594.0
 30
0.0
  9
$LIMMIN
 10
0.0
 20
0.0
  9
$LIMMAX
 10
840.0
 20
594.0
  9
$ORTHOMODE
 70
     0
  9
$REGENMODE
 70
     1
  9
$FILLMODE
 70
     1
  9
$QTEXTMODE
 70
     0
  9
$MIRRTEXT
 70
     0
  9
$LTSCALE
 40
2.0
  9
$ATTMODE
 70
     1
  9
$TEXTSIZE
 40
0.2
  9
$TRACEWID
 40
0.05
  9
$TEXTSTYLE
  7
Standard
  9
$CLAYER
  8
0
  9
$CELTYPE
  6
ByLayer
  9
$CECOLOR
 62
   256
  9
$CELTSCALE
 40
1.0
  9
$DISPSILH
 70
     0
  9
$DIMSCALE
 40
1.0
  9
$DIMASZ
 40
1.799999999999999
  9
$DIMEXO
 40
0.0625
  9
$DIMDLI
 40
0.38
  9
$DIMRND
 40
0.0
  9
$DIMDLE
 40
0.0
  9
$DIMEXE
 40
0.18
  9
$DIMTP
 40
0.0
  9
$DIMTM
 40
0.0
  9
$DIMTXT
 40
0.3499999940395355
  9
$DIMCEN
 40
0.09
  9
$DIMTSZ
 40
0.0
  9
$DIMTOL
 70
     0
  9
$DIMLIM
 70
     0
  9
$DIMTIH
 70
     1
  9
$DIMTOH
 70
     1
  9
$DIMSE1
 70
     0
  9
$DIMSE2
 70
     0
  9
$DIMTAD
 70
     0
  9
$DIMZIN
 70
     0
  9
$DIMBLK
  1

  9
$DIMASO
 70
     1
  9
$DIMSHO
 70
     1
  9
$DIMPOST
  1

  9
$DIMAPOST
  1

  9
$DIMALT
 70
     0
  9
$DIMALTD
 70
     2
  9
$DIMALTF
 40
25.4
  9
$DIMLFAC
 40
1.0
  9
$DIMTOFL
 70
     0
  9
$DIMTVP
 40
0.0
  9
$DIMTIX
 70
     0
  9
$DIMSOXD
 70
     0
  9
$DIMSAH
 70
     0
  9
$DIMBLK1
  1

  9
$DIMBLK2
  1

  9
$DIMSTYLE
  2
Standard
  9
$DIMCLRD
 70
     0
  9
$DIMCLRE
 70
     0
  9
$DIMCLRT
 70
     0
  9
$DIMTFAC
 40
1.0
  9
$DIMGAP
 40
0.09
  9
$DIMJUST
 70
     0
  9
$DIMSD1
 70
     0
  9
$DIMSD2
 70
     0
  9
$DIMTOLJ
 70
     1
  9
$DIMTZIN
 70
     0
  9
$DIMALTZ
 70
     0
  9
$DIMALTTZ
 70
     0
  9
$DIMUPT
 70
     0
  9
$DIMDEC
 70
     4
  9
$DIMTDEC
 70
     4
  9
$DIMALTU
 70
     2
  9
$DIMALTTD
 70
     2
  9
$DIMTXSTY
  7
Standard
  9
$DIMAUNIT
 70
     0
  9
$DIMADEC
 70
     0
  9
$DIMALTRND
 40
0.0
  9
$DIMAZIN
 70
     0
  9
$DIMDSEP
 70
    46
  9
$DIMATFIT
 70
     3
  9
$DIMFRAC
 70
     0
  9
$DIMLDRBLK
  1

  9
$DIMLUNIT
 70
     2
  9
$DIMLWD
 70
    -2
  9
$DIMLWE
 70
    -2
  9
$DIMTMOVE
 70
     0
  9
$DIMFXL
 40
1.0
  9
$DIMFXLON
 70
     0
  9
$DIMJOGANG
 40
0.7853981633974483
  9
$DIMTFILL
 70
     0
  9
$DIMTFILLCLR
 70
     0
  9
$DIMARCSYM
 70
     0
  9
$DIMLTYPE
  6

  9
$DIMLTEX1
  6

  9
$DIMLTEX2
  6

  9
$LUNITS
 70
     2
  9
$LUPREC
 70
     4
  9
$SKETCHINC
 40
0.1
  9
$FILLETRAD
 40
0.0
  9
$AUNITS
 70
     0
  9
$AUPREC
 70
     0
  9
$MENU
  1
.
  9
$ELEVATION
 40
0.0
  9
$PELEVATION
 40
0.0
  9
$THICKNESS
 40
0.0
  9
$LIMCHECK
 70
     0
  9
$CHAMFERA
 40
0.0
  9
$CHAMFERB
 40
0.0
  9
$CHAMFERC
 40
0.0
  9
$CHAMFERD
 40
0.0
  9
$SKPOLY
 70
     0
  9
$TDCREATE
 40
2455344.579719190
  9
$TDUCREATE
 40
2455344.496385857
  9
$TDUPDATE
 40
2455344.579719190
  9
$TDUUPDATE
 40
2455344.496385857
  9
$TDINDWG
 40
0.0000229630
  9
$TDUSRTIMER
 40
0.0000229630
  9
$USRTIMER
 70
     1
  9
$ANGBASE
 50
0.0
  9
$ANGDIR
 70
     0
  9
$PDMODE
 70
     0
  9
$PDSIZE
 40
0.0
  9
$PLINEWID
 40
0.0
  9
$SPLFRAME
 70
     0
  9
$SPLINETYPE
 70
     6
  9
$SPLINESEGS
 70
     8
  9
$HANDSEED
  5
477
  9
$SURFTAB1
 70
     6
  9
$SURFTAB2
 70
     6
  9
$SURFTYPE
 70
     6
  9
$SURFU
 70
     6
  9
$SURFV
 70
     6
  9
$UCSBASE
  2

  9
$UCSNAME
  2

  9
$UCSORG
 10
0.0
 20
0.0
 30
0.0
  9
$UCSXDIR
 10
1.0
 20
0.0
 30
0.0
  9
$UCSYDIR
 10
0.0
 20
1.0
 30
0.0
  9
$UCSORTHOREF
  2

  9
$UCSORTHOVIEW
 70
     0
  9
$UCSORGTOP
 10
0.0
 20
0.0
 30
0.0
  9
$UCSORGBOTTOM
 10
0.0
 20
0.0
 30
0.0
  9
$UCSORGLEFT
 10
0.0
 20
0.0
 30
0.0
  9
$UCSORGRIGHT
 10
0.0
 20
0.0
 30
0.0
  9
$UCSORGFRONT
 10
0.0
 20
0.0
 30
0.0
  9
$UCSORGBACK
 10
0.0
 20
0.0
 30
0.0
  9
$PUCSBASE
  2

  9
$PUCSNAME
  2

  9
$PUCSORG
 10
0.0
 20
0.0
 30
0.0
  9
$PUCSXDIR
 10
1.0
 20
0.0
 30
0.0
  9
$PUCSYDIR
 10
0.0
 20
1.0
 30
0.0
  9
$PUCSORTHOREF
  2

  9
$PUCSORTHOVIEW
 70
     0
  9
$PUCSORGTOP
 10
0.0
 20
0.0
 30
0.0
  9
$PUCSORGBOTTOM
 10
0.0
 20
0.0
 30
0.0
  9
$PUCSORGLEFT
 10
0.0
 20
0.0
 30
0.0
  9
$PUCSORGRIGHT
 10
0.0
 20
0.0
 30
0.0
  9
$PUCSORGFRONT
 10
0.0
 20
0.0
 30
0.0
  9
$PUCSORGBACK
 10
0.0
 20
0.0
 30
0.0
  9
$USERI1
 70
     0
  9
$USERI2
 70
     0
  9
$USERI3
 70
     0
  9
$USERI4
 70
     0
  9
$USERI5
 70
     0
  9
$USERR1
 40
0.0
  9
$USERR2
 40
0.0
  9
$USERR3
 40
0.0
  9
$USERR4
 40
0.0
  9
$USERR5
 40
0.0
  9
$WORLDVIEW
 70
     1
  9
$SHADEDGE
 70
     3
  9
$SHADEDIF
 70
    70
  9
$TILEMODE
 70
     1
  9
$MAXACTVP
 70
    64
  9
$PINSBASE
 10
0.0
 20
0.0
 30
0.0
  9
$PLIMCHECK
 70
     0
  9
$PEXTMIN
 10
0.0
 20
0.0
 30
0.0
  9
$PEXTMAX
 10
840.0
 20
594.0
 30
0.0
  9
$PLIMMIN
 10
0.0
 20
0.0
  9
$PLIMMAX
 10
840.0
 20
594.0
  9
$UNITMODE
 70
     0
  9
$VISRETAIN
 70
     1
  9
$PLINEGEN
 70
     0
  9
$PSLTSCALE
 70
     1
  9
$TREEDEPTH
 70
  3020
  9
$CMLSTYLE
  2
Standard
  9
$CMLJUST
 70
     0
  9
$CMLSCALE
 40
1.0
  9
$PROXYGRAPHICS
 70
     1
  9
$MEASUREMENT
 70
     1
  9
$CELWEIGHT
370
    -1
  9
$ENDCAPS
280
     0
  9
$JOINSTYLE
280
     0
  9
$LWDISPLAY
290
     0
  9
$INSUNITS
 70
     4
  9
$HYPERLINKBASE
  1

  9
$STYLESHEET
  1

  9
$XEDIT
290
     1
  9
$CEPSNTYPE
380
     0
  9
$PSTYLEMODE
290
     1
  9
$FINGERPRINTGUID
  2
{1D279258-36A4-403A-B80D-6107B4209DC7}
  9
$VERSIONGUID
  2
{B1904FD4-4223-45C6-BC51-81DAD8CB1860}
  9
$EXTNAMES
290
     1
  9
$PSVPSCALE
 40
0.0
  9
$OLESTARTUP
290
     0
  9
$SORTENTS
280
   127
  9
$INDEXCTL
280
     0
  9
$HIDETEXT
280
     1
  9
$XCLIPFRAME
290
     0
  9
$HALOGAP
280
     0
  9
$OBSCOLOR
 70
   257
  9
$OBSLTYPE
280
     0
  9
$INTERSECTIONDISPLAY
280
     0
  9
$INTERSECTIONCOLOR
 70
   257
  9
$DIMASSOC
280
     1
  9
$PROJECTNAME
  1

  9
$CAMERADISPLAY
290
     0
  9
$LENSLENGTH
 40
50.0
  9
$CAMERAHEIGHT
 40
0.0
  9
$STEPSPERSEC
 40
2.0
  9
$STEPSIZE
 40
6.0
  9
$3DDWFPREC
 40
2.0
  9
$PSOLWIDTH
 40
0.25
  9
$PSOLHEIGHT
 40
4.0
  9
$LOFTANG1
 40
1.570796326794896
  9
$LOFTANG2
 40
1.570796326794896
  9
$LOFTMAG1
 40
0.0
  9
$LOFTMAG2
 40
0.0
  9
$LOFTPARAM
 70
     7
  9
$LOFTNORMALS
280
     1
  9
$LATITUDE
 40
37.795
  9
$LONGITUDE
 40
-122.394
  9
$NORTHDIRECTION
 40
0.0
  9
$TIMEZONE
 70
 -8000
  9
$LIGHTGLYPHDISPLAY
280
     1
  9
$TILEMODELIGHTSYNCH
280
     1
  9
$CMATERIAL
347
11
  9
$SOLIDHIST
280
     1
  9
$SHOWHIST
280
     1
  9
$DWFFRAME
280
     2
  9
$DGNFRAME
280
     0
  9
$REALWORLDSCALE
290
     1
  9
$INTERFERECOLOR
 62
     1
  9
$INTERFEREOBJVS
345
33
  9
$INTERFEREVPVS
346
30
  9
$CSHADOW
280
     0
  9
$SHADOWPLANELOCATION
 40
0.0
  0
ENDSEC
  0
SECTION
  2
CLASSES
  0
CLASS
  1
ACDBDICTIONARYWDFLT
  2
AcDbDictionaryWithDefault
  3
ObjectDBX Classes
 90
        0
 91
        1
280
     0
281
     0
  0
CLASS
  1
MATERIAL
  2
AcDbMaterial
  3
ObjectDBX Classes
 90
     1153
 91
        3
280
     0
281
     0
  0
CLASS
  1
VISUALSTYLE
  2
AcDbVisualStyle
  3
ObjectDBX Classes
 90
     4095
 91
       16
280
     0
281
     0
  0
CLASS
  1
SCALE
  2
AcDbScale
  3
ObjectDBX Classes
 90
     1153
 91
       33
280
     0
281
     0
  0
CLASS
  1
TABLESTYLE
  2
AcDbTableStyle
  3
ObjectDBX Classes
 90
     4095
 91
        1
280
     0
281
     0
  0
CLASS
  1
MLEADERSTYLE
  2
AcDbMLeaderStyle
  3
ACDB_MLEADERSTYLE_CLASS
 90
     4095
 91
        1
280
     0
281
     0
  0
CLASS
  1
DICTIONARYVAR
  2
AcDbDictionaryVar
  3
ObjectDBX Classes
 90
        0
 91
        3
280
     0
281
     0
  0
CLASS
  1
CELLSTYLEMAP
  2
AcDbCellStyleMap
  3
ObjectDBX Classes
 90
     1152
 91
        1
280
     0
281
     0
  0
ENDSEC
  0
SECTION
  2
TABLES
  0
TABLE
  2
VPORT
  5
8
330
0
100
AcDbSymbolTable
 70
     1
  0
VPORT
  5
5F
330
8
100
AcDbSymbolTableRecord
100
AcDbViewportTableRecord
  2
*Active
 70
     0
 10
0.0
 20
0.0
 11
1.0
 21
1.0
 12
420.0
 22
297.0
 13
0.0
 23
0.0
 14
1.0
 24
1.0
 15
0.0
 25
0.0
 16
0.0
 26
0.0
 36
1.0
 17
0.0
 27
0.0
 37
0.0
 40
594.0
 41
1.414141414141414
 42
50.0
 43
0.0
 44
0.0
 50
0.0
 51
0.0
 71
     0
 72
   100
 73
     1
 74
     1
 75
     0
 76
     0
 77
     0
 78
     0
281
     0
 65
     1
110
0.0
120
0.0
130
0.0
111
1.0
121
0.0
131
0.0
112
0.0
122
1.0
132
0.0
 79
     0
146
0.0
 60
     3
 61
     5
292
     1
282
     1
141
0.0
142
0.0
 63
   250
421
  3355443
  0
ENDTAB
  0
TABLE
  2
LTYPE
  5
5
330
0
100
AcDbSymbolTable
 70
     1
  0
LTYPE
  5
63
330
5
100
AcDbSymbolTableRecord
100
AcDbLinetypeTableRecord
  2
ByBlock
 70
     0
  3

 72
    65
 73
     0
 40
0.0
  0
LTYPE
  5
64
330
5
100
AcDbSymbolTableRecord
100
AcDbLinetypeTableRecord
  2
ByLayer
 70
     0
  3

 72
    65
 73
     0
 40
0.0
  0
LTYPE
  5
65
330
5
100
AcDbSymbolTableRecord
100
AcDbLinetypeTableRecord
  2
Continuous
 70
     0
  3
Solid line
 72
    65
 73
     0
 40
0.0
  0
ENDTAB
  0
TABLE
  2
LAYER
  5
2
330
0
100
AcDbSymbolTable
 70
    25
  0
LAYER
  5
5C
330
2
100
AcDbSymbolTableRecord
100
AcDbLayerTableRecord
  2
0
 70
     0
 62
     7
  6
Continuous
370
    -3
390
F
347
21
  0
LAYER
  5
8C
330
2
100
AcDbSymbolTableRecord
100
AcDbLayerTableRecord
  2
Schraffur (ISO)
 70
     0
 62
     7
  6
Continuous
370
    18
390
F
347
21
  0
LAYER
  5
8D
330
2
100
AcDbSymbolTableRecord
100
AcDbLayerTableRecord
  2
Sichtbar (ISO)
 70
     0
 62
     7
  6
Continuous
370
    35
390
F
347
21
  0
LAYER
  5
8E
330
2
100
AcDbSymbolTableRecord
100
AcDbLayerTableRecord
  2
Sichtbar schmal (ISO)
 70
     0
 62
     7
  6
Continuous
370
    25
390
F
347
21
  0
LAYER
  5
8F
330
2
100
AcDbSymbolTableRecord
100
AcDbLayerTableRecord
  2
Skizziergeometrie (ISO)
 70
     0
 62
     7
  6
Continuous
370
    25
390
F
347
21
  0
LAYER
  5
90
330
2
100
AcDbSymbolTableRecord
100
AcDbLayerTableRecord
  2
Symbol (ISO)
 70
     0
 62
     7
  6
Continuous
370
    25
390
F
347
21
  0
LAYER
  5
91
330
2
100
AcDbSymbolTableRecord
100
AcDbLayerTableRecord
  2
Titel (ISO)
 70
     0
 62
     7
  6
Continuous
370
    50
390
F
347
21
  0
ENDTAB
  0
TABLE
  2
STYLE
  5
3
330
0
100
AcDbSymbolTable
 70
    24
  0
STYLE
  5
5D
330
3
100
AcDbSymbolTableRecord
100
AcDbTextStyleTableRecord
  2
Standard
 70
     0
 40
0.0
 41
1.0
 50
0.0
 71
     0
 42
0.2
  3
isocpeur.ttf
  4

1001
ACAD
1000
ISOCPEUR
1071
      256
  0
STYLE
  5
62
330
3
100
AcDbSymbolTableRecord
100
AcDbTextStyleTableRecord
  2
Annotative
 70
     0
 40
0.0
 41
1.0
 50
0.0
 71
     0
 42
0.2
  3
txt
  4

1001
AcadAnnotative
1000
AnnotativeData
1002
{
1070
     1
1070
     1
1002
}
  0
STYLE
  5
95
330
3
100
AcDbSymbolTableRecord
100
AcDbTextStyleTableRecord
  2
Alternativer Text (GOST)
 70
     0
 40
0.0
 41
0.8000000119209289
 50
0.0
 71
     0
 42
0.2
  3
ARIAL.TTF
  4

1001
ACAD
1000
Arial
1071
      256
  0
STYLE
  5
96
330
3
100
AcDbSymbolTableRecord
100
AcDbTextStyleTableRecord
  2
Bezeichnungstext (ANSI)
 70
     0
 40
0.0
 41
1.0
 50
0.0
 71
     0
 42
0.2
  3
TAHOMA.TTF
  4

1001
ACAD
1000
Tahoma
1071
      256
  0
STYLE
  5
97
330
3
100
AcDbSymbolTableRecord
100
AcDbTextStyleTableRecord
  2
Bezeichnungstext (DIN)
 70
     0
 40
0.0
 41
1.0
 50
0.0
 71
     0
 42
0.2
  3
isocpeur.ttf
  4

1001
ACAD
1000
ISOCPEUR
1071
      256
  0
STYLE
  5
98
330
3
100
AcDbSymbolTableRecord
100
AcDbTextStyleTableRecord
  2
Bezeichnungstext (ISO)
 70
     0
 40
0.0
 41
1.0
 50
0.0
 71
     0
 42
0.2
  3
TAHOMA.TTF
  4

1001
ACAD
1000
Tahoma
1071
      256
  0
STYLE
  5
99
330
3
100
AcDbSymbolTableRecord
100
AcDbTextStyleTableRecord
  2
Bezeichnungstext (JIS)
 70
     0
 40
0.0
 41
1.0
 50
0.0
 71
     0
 42
0.2
  3
TAHOMA.TTF
  4

1001
ACAD
1000
Tahoma
1071
      256
  0
STYLE
  5
9A
330
3
100
AcDbSymbolTableRecord
100
AcDbTextStyleTableRecord
  2
Normale Textgröße (GOST)
 70
     0
 40
0.0
 41
1.0
 50
0.0
 71
     0
 42
0.2
  3
GOST Common.ttf
  4

1001
ACAD
1000
GOST Common
1071
      256
  0
STYLE
  5
9B
330
3
100
AcDbSymbolTableRecord
100
AcDbTextStyleTableRecord
  2
Notiztext (ANSI)
 70
     0
 40
0.0
 41
1.0
 50
0.0
 71
     0
 42
0.2
  3
TAHOMA.TTF
  4

1001
ACAD
1000
Tahoma
1071
      256
  0
STYLE
  5
9C
330
3
100
AcDbSymbolTableRecord
100
AcDbTextStyleTableRecord
  2
Notiztext (DIN)
 70
     0
 40
0.0
 41
1.0
 50
0.0
 71
     0
 42
0.2
  3
isocpeur.ttf
  4

1001
ACAD
1000
ISOCPEUR
1071
      256
  0
STYLE
  5
9D
330
3
100
AcDbSymbolTableRecord
100
AcDbTextStyleTableRecord
  2
Notiztext (ISO)
 70
     0
 40
0.0
 41
1.0
 50
0.0
 71
     0
 42
0.2
  3
TAHOMA.TTF
  4

1001
ACAD
1000
Tahoma
1071
      256
  0
STYLE
  5
9E
330
3
100
AcDbSymbolTableRecord
100
AcDbTextStyleTableRecord
  2
Notiztext (JIS)
 70
     0
 40
0.0
 41
1.0
 50
0.0
 71
     0
 42
0.2
  3
TAHOMA.TTF
  4

1001
ACAD
1000
Tahoma
1071
      256
  0
STYLE
  5
9F
330
3
100
AcDbSymbolTableRecord
100
AcDbTextStyleTableRecord
  2
Notiztext_03.5
 70
     0
 40
0.0
 41
0.899999976158142
 50
0.0
 71
     0
 42
0.2
  3
ARIAL.TTF
  4

1001
ACAD
1000
Arial
1071
      256
  0
STYLE
  5
A0
330
3
100
AcDbSymbolTableRecord
100
AcDbTextStyleTableRecord
  2
Plan_Kopf_01.5
 70
     0
 40
0.0
 41
0.899999976158142
 50
0.0
 71
     0
 42
0.2
  3
ARIAL.TTF
  4

1001
ACAD
1000
Arial
1071
      256
  0
STYLE
  5
A1
330
3
100
AcDbSymbolTableRecord
100
AcDbTextStyleTableRecord
  2
Plan_Kopf_02.0
 70
     0
 40
0.0
 41
0.899999976158142
 50
0.0
 71
     0
 42
0.2
  3
ARIAL.TTF
  4

1001
ACAD
1000
Arial
1071
      256
  0
STYLE
  5
A2
330
3
100
AcDbSymbolTableRecord
100
AcDbTextStyleTableRecord
  2
Plan_Kopf_02.5
 70
     0
 40
0.0
 41
0.899999976158142
 50
0.0
 71
     0
 42
0.2
  3
ARIAL.TTF
  4

1001
ACAD
1000
Arial
1071
      256
  0
STYLE
  5
A3
330
3
100
AcDbSymbolTableRecord
100
AcDbTextStyleTableRecord
  2
Plan_Kopf_03.5
 70
     0
 40
0.0
 41
0.899999976158142
 50
0.0
 71
     0
 42
0.2
  3
ARIAL.TTF
  4

1001
ACAD
1000
Arial
1071
      256
  0
STYLE
  5
A4
330
3
100
AcDbSymbolTableRecord
100
AcDbTextStyleTableRecord
  2
Plan_Kopf_05.0
 70
     0
 40
0.0
 41
0.899999976158142
 50
0.0
 71
     0
 42
0.2
  3
ARIAL.TTF
  4

1001
ACAD
1000
Arial
1071
      256
  0
STYLE
  5
A5
330
3
100
AcDbSymbolTableRecord
100
AcDbTextStyleTableRecord
  2
Stückliste
 70
     0
 40
0.0
 41
0.899999976158142
 50
0.0
 71
     0
 42
0.2
  3
isocpeur.ttf
  4

1001
ACAD
1000
ISOCPEUR
1071
      256
  0
STYLE
  5
A6
330
3
100
AcDbSymbolTableRecord
100
AcDbTextStyleTableRecord
  2
TolListe_12
 70
     0
 40
0.0
 41
1.0
 50
0.0
 71
     0
 42
0.2
  3
isocpeur.ttf
  4

1001
ACAD
1000
ISOCPEUR
1071
      256
  0
STYLE
  5
A7
330
3
100
AcDbSymbolTableRecord
100
AcDbTextStyleTableRecord
  2
Vergrößerter Text (GOST)
 70
     0
 40
0.0
 41
1.0
 50
0.0
 71
     0
 42
0.2
  3
GOST Common.ttf
  4

1001
ACAD
1000
GOST Common
1071
      256
  0
STYLE
  5
A8
330
3
100
AcDbSymbolTableRecord
100
AcDbTextStyleTableRecord
  2
Verkleinerter Text (GOST)
 70
     0
 40
0.0
 41
0.8000000119209289
 50
0.0
 71
     0
 42
0.2
  3
GOST Common.ttf
  4

1001
ACAD
1000
GOST Common
1071
      256
  0
STYLE
  5
10B
330
3
100
AcDbSymbolTableRecord
100
AcDbTextStyleTableRecord
  2
TolListe_12-AIGDT
 70
     0
 40
0.0
 41
1.0
 50
0.0
 71
     0
 42
0.2
  3
AIGDT___.TTF
  4

1001
ACAD
1000
AIGDT
1071
      514
  0
STYLE
  5
164
330
3
100
AcDbSymbolTableRecord
100
AcDbTextStyleTableRecord
  2
TolListe_12-Arial
 70
     0
 40
0.0
 41
1.100000023841857
 50
0.0
 71
     0
 42
0.2
  3

  4

1001
ACAD
1000
Arial
1071
-33554176
  0
ENDTAB
  0
TABLE
  2
VIEW
  5
6
330
0
100
AcDbSymbolTable
 70
     0
  0
ENDTAB
  0
TABLE
  2
UCS
  5
7
330
0
100
AcDbSymbolTable
 70
     0
  0
ENDTAB
  0
TABLE
  2
APPID
  5
9
330
0
100
AcDbSymbolTable
 70
     4
  0
APPID
  5
5E
330
9
100
AcDbSymbolTableRecord
100
AcDbRegAppTableRecord
  2
ACAD
 70
     0
  0
APPID
  5
66
330
9
100
AcDbSymbolTableRecord
100
AcDbRegAppTableRecord
  2
AcadAnnotative
 70
     0
  0
APPID
  5
70
330
9
100
AcDbSymbolTableRecord
100
AcDbRegAppTableRecord
  2
ACAD_MLEADERVER
 70
     0
  0
APPID
  5
16A
330
9
100
AcDbSymbolTableRecord
100
AcDbRegAppTableRecord
  2
AcadAnnoPO
 70
     0
  0
ENDTAB
  0
TABLE
  2
DIMSTYLE
  5
A
330
0
100
AcDbSymbolTable
 70
    12
100
AcDbDimStyleTable
 71
     0
  0
DIMSTYLE
105
60
330
A
100
AcDbSymbolTableRecord
100
AcDbDimStyleTableRecord
  2
Standard
 70
     0
340
5D
  0
DIMSTYLE
105
61
330
A
100
AcDbSymbolTableRecord
100
AcDbDimStyleTableRecord
  2
Annotative
 70
     0
340
5D
1001
AcadAnnotative
1000
AnnotativeData
1002
{
1070
     1
1070
     1
1002
}
  0
DIMSTYLE
105
B7
330
A
100
AcDbSymbolTableRecord
100
AcDbDimStyleTableRecord
  2
Sonstiges Objekt (DIN)
 70
     0
 40
2.0
 41
5.0
 42
0.0
 43
5.999999999999999
 44
3.174999999999999
 45
0.00000001
 46
10.0
 77
     1
 78
     8
 79
     2
140
5.25
143
0.03937
146
0.6666666666666666
147
0.8
171
     3
172
     1
176
   256
177
   256
178
   256
271
     2
272
     2
274
     3
278
    44
284
     8
286
     8
340
97
341
A9
371
    -1
372
    -1
  0
DIMSTYLE
105
B8
330
A
100
AcDbSymbolTableRecord
100
AcDbDimStyleTableRecord
  2
Sonstiges Objekt (DIN)$7
 70
     0
 40
2.0
 41
5.0
 42
0.0
 43
5.999999999999999
 44
3.174999999999999
 45
0.00000001
 46
10.0
 77
     1
 78
     8
 79
     2
140
5.25
143
0.03937
146
0.6666666666666666
147
0.8
171
     3
172
     1
176
   256
177
   256
178
   256
271
     2
272
     2
274
     3
278
    44
284
     8
286
     8
340
97
341
A9
371
    25
372
    -1
  0
DIMSTYLE
105
B9
330
A
100
AcDbSymbolTableRecord
100
AcDbDimStyleTableRecord
  2
Standard - Methode 2a (DIN)
 70
     0
 40
2.0
 41
2.5
 42
0.8
 43
5.999999999999999
 44
3.174999999999999
 45
0.00000001
 46
10.0
 77
     1
 78
     8
 79
     2
140
3.5
143
0.03937
147
0.8
170
     1
171
     3
172
     1
176
   256
177
   256
178
   256
179
     2
271
     2
272
     2
274
     3
278
    44
284
     8
286
     8
340
9C
371
    -1
372
    -1
  0
DIMSTYLE
105
BA
330
A
100
AcDbSymbolTableRecord
100
AcDbDimStyleTableRecord
  2
Standard - Methode 2a (DIN)$7
 70
     0
 40
2.0
 41
2.5
 42
0.8
 43
5.999999999999999
 44
3.174999999999999
 45
0.00000001
 46
10.0
 77
     1
 78
     8
 79
     2
140
3.5
143
0.03937
147
0.8
170
     1
171
     3
172
     1
176
   256
177
   256
178
   256
179
     2
271
     2
272
     2
274
     3
278
    44
284
     8
286
     8
340
9C
371
    -1
372
    -1
  0
DIMSTYLE
105
BB
330
A
100
AcDbSymbolTableRecord
100
AcDbDimStyleTableRecord
  2
Standard - Methode 2b (DIN)
 70
     0
 40
2.0
 41
2.5
 42
0.0
 43
5.999999999999999
 44
3.174999999999999
 45
0.00000001
 46
10.0
 77
     1
 78
     8
 79
     2
140
3.5
143
0.03937
147
0.8
171
     3
172
     1
176
   256
177
   256
178
   256
271
     2
272
     2
274
     3
278
    44
284
     8
286
     8
340
9C
371
    -1
372
    -1
  0
DIMSTYLE
105
BC
330
A
100
AcDbSymbolTableRecord
100
AcDbDimStyleTableRecord
  2
Standard - Methode 2b (DIN)$7
 70
     0
 40
2.0
 41
2.5
 42
0.0
 43
5.999999999999999
 44
3.174999999999999
 45
0.00000001
 46
10.0
 77
     1
 78
     8
 79
     2
140
3.5
143
0.03937
147
0.8
171
     3
172
     1
176
   256
177
   256
178
   256
271
     2
272
     2
274
     3
278
    44
284
     8
286
     8
340
9C
371
    -1
372
    -1
  0
DIMSTYLE
105
BD
330
A
100
AcDbSymbolTableRecord
100
AcDbDimStyleTableRecord
  2
Standard (DIN)
 70
     0
 40
2.0
 41
2.5
 42
0.8
 43
5.999999999999999
 44
3.174999999999999
 45
0.00000001
 46
10.0
 73
     0
 74
     0
 77
     1
 78
     8
 79
     2
140
3.5
143
0.03937
147
0.8
171
     3
172
     1
176
   256
177
   256
178
   256
271
     2
272
     3
274
     3
278
    44
340
9C
371
    -1
372
    -1
  0
DIMSTYLE
105
BE
330
A
100
AcDbSymbolTableRecord
100
AcDbDimStyleTableRecord
  2
Standard (DIN)$7
 70
     0
 40
2.0
 41
2.5
 42
0.8
 43
5.999999999999999
 44
3.174999999999999
 45
0.00000001
 46
10.0
 73
     0
 74
     0
 77
     1
 78
     8
 79
     2
140
3.5
143
0.03937
147
0.8
171
     3
172
     1
176
   256
177
   256
178
   256
271
     2
272
     3
274
     3
278
    44
340
9C
371
    -1
372
    -1
  0
DIMSTYLE
105
BF
330
A
100
AcDbSymbolTableRecord
100
AcDbDimStyleTableRecord
  2
Alternativ (ISO)
 70
     0
 40
2.0
 41
2.5
340
5D
342
C0
  0
DIMSTYLE
105
D1
330
A
100
AcDbSymbolTableRecord
100
AcDbDimStyleTableRecord
  2
Bezug (ISO)
 70
     0
 40
2.0
 41
2.5
340
5D
342
C0
  0
ENDTAB
  0
TABLE
  2
BLOCK_RECORD
  5
1
330
0
100
AcDbSymbolTable
 70
     8
  0
BLOCK_RECORD
  5
75
330
1
100
AcDbSymbolTableRecord
100
AcDbBlockTableRecord
  2
*Model_Space
340
78
 70
     0
280
     1
281
     0
  0
BLOCK_RECORD
  5
71
330
1
100
AcDbSymbolTableRecord
100
AcDbBlockTableRecord
  2
*Paper_Space
340
74
 70
     0
280
     1
281
     0
  0
BLOCK_RECORD
  5
79
330
1
100
AcDbSymbolTableRecord
100
AcDbBlockTableRecord
  2
*Paper_Space0
340
7C
 70
     0
280
     1
281
     0
  0
BLOCK_RECORD
  5
A9
330
1
100
AcDbSymbolTableRecord
100
AcDbBlockTableRecord
  2
Filled-1
340
0
 70
     0
280
     1
281
     0
  0
BLOCK_RECORD
  5
C0
330
1
100
AcDbSymbolTableRecord
100
AcDbBlockTableRecord
  2
_Closed
340
0
 70
     0
280
     1
281
     0
  0
BLOCK_RECORD
  5
C7
330
1
100
AcDbSymbolTableRecord
100
AcDbBlockTableRecord
  2
DatumFilled45
340
0
 70
     0
280
     1
281
     0
  0
BLOCK_RECORD
  5
D2
330
1
100
AcDbSymbolTableRecord
100
AcDbBlockTableRecord
  2
Tolleranz Liste
340
0
 70
     0
280
     1
281
     0
  0
BLOCK_RECORD
  5
16D
330
1
100
AcDbSymbolTableRecord
100
AcDbBlockTableRecord
  2
ProtoTyp
340
0
 70
     0
280
     1
281
     0
  0
BLOCK_RECORD
  5
172
330
1
100
AcDbSymbolTableRecord
100
AcDbBlockTableRecord
  2
Logo
340
0
 70
     0
280
     1
281
     0
  0
BLOCK_RECORD
  5
1EF
330
1
100
AcDbSymbolTableRecord
100
AcDbBlockTableRecord
  2
P gross
340
0
 70
     0
280
     1
281
     0
  0
ENDTAB
  0
ENDSEC
  0
SECTION
  2
BLOCKS
  0
BLOCK
  5
76
330
75
100
AcDbEntity
  8
0
100
AcDbBlockBegin
  2
*Model_Space
 70
     0
 10
0.0
 20
0.0
 30
0.0
  3
*Model_Space
  1

  0
ENDBLK
  5
77
330
75
100
AcDbEntity
  8
0
100
AcDbBlockEnd
  0
BLOCK
  5
72
330
71
100
AcDbEntity
 67
     1
  8
0
100
AcDbBlockBegin
  2
*Paper_Space
 70
     0
 10
0.0
 20
0.0
 30
0.0
  3
*Paper_Space
  1

  0
ENDBLK
  5
73
330
71
100
AcDbEntity
 67
     1
  8
0
100
AcDbBlockEnd
  0
BLOCK
  5
7A
330
79
100
AcDbEntity
 67
     1
  8
0
100
AcDbBlockBegin
  2
*Paper_Space0
 70
     0
 10
0.0
 20
0.0
 30
0.0
  3
*Paper_Space0
  1

  0
ENDBLK
  5
7B
330
79
100
AcDbEntity
 67
     1
  8
0
100
AcDbBlockEnd
  0
BLOCK
  5
AA
330
A9
100
AcDbEntity
  8
0
100
AcDbBlockBegin
  2
Filled-1
 70
     0
 10
0.0
 20
0.0
 30
0.0
  3
Filled-1
  1

  0
LINE
  5
AC
330
A9
100
AcDbEntity
  8
0
 62
     0
100
AcDbLine
 10
-1.0
 20
0.0
 30
0.0
 11
0.0
 21
0.0
 31
0.0
  0
POLYLINE
  5
AD
330
A9
100
AcDbEntity
  8
0
 62
     0
100
AcDb2dPolyline
 66
     1
 10
0.0
 20
0.0
 30
0.0
 70
   128
  0
VERTEX
  5
AE
330
AD
100
AcDbEntity
  8
0
 62
     0
100
AcDbVertex
100
AcDb2dVertex
 10
-1.0
 20
-0.1
 30
0.0
  0
VERTEX
  5
AF
330
AD
100
AcDbEntity
  8
0
 62
     0
100
AcDbVertex
100
AcDb2dVertex
 10
0.0
 20
0.0
 30
0.0
  0
VERTEX
  5
B1
330
AD
100
AcDbEntity
  8
0
 62
     0
100
AcDbVertex
100
AcDb2dVertex
 10
-1.0
 20
0.1
 30
0.0
  0
VERTEX
  5
B2
330
AD
100
AcDbEntity
  8
0
 62
     0
100
AcDbVertex
100
AcDb2dVertex
 10
-1.0
 20
-0.1
 30
0.0
  0
SEQEND
  5
B0
330
AD
100
AcDbEntity
  8
0
 62
     0
  0
SOLID
  5
B3
330
A9
100
AcDbEntity
  8
0
 62
     0
100
AcDbTrace
 10
-1.0
 20
-0.1
 30
0.0
 11
0.0
 21
0.0
 31
0.0
 12
-1.0
 22
0.1
 32
0.0
 13
-1.0
 23
-0.1
 33
0.0
  0
LINE
  5
B4
330
A9
100
AcDbEntity
  8
0
 62
     0
100
AcDbLine
 10
-1.0
 20
-0.1
 30
0.0
 11
0.0
 21
0.0
 31
0.0
  0
LINE
  5
B5
330
A9
100
AcDbEntity
  8
0
 62
     0
100
AcDbLine
 10
0.0
 20
0.0
 30
0.0
 11
-1.0
 21
0.1
 31
0.0
  0
LINE
  5
B6
330
A9
100
AcDbEntity
  8
0
 62
     0
100
AcDbLine
 10
-1.0
 20
0.1
 30
0.0
 11
-1.0
 21
-0.1
 31
0.0
  0
ENDBLK
  5
AB
330
A9
100
AcDbEntity
  8
0
100
AcDbBlockEnd
  0
BLOCK
  5
C5
330
C0
100
AcDbEntity
  8
0
100
AcDbBlockBegin
  2
_Closed
 70
     0
 10
0.0
 20
0.0
 30
0.0
  3
_Closed
  1

  0
LINE
  5
C1
330
C0
100
AcDbEntity
  8
0
  6
ByBlock
 62
     0
370
    -2
100
AcDbLine
 10
-1.0
 20
0.1666666666666666
 30
0.0
 11
0.0
 21
0.0
 31
0.0
  0
LINE
  5
C2
330
C0
100
AcDbEntity
  8
0
  6
ByBlock
 62
     0
370
    -2
100
AcDbLine
 10
0.0
 20
0.0
 30
0.0
 11
-1.0
 21
-0.1666666666666666
 31
0.0
  0
LINE
  5
C3
330
C0
100
AcDbEntity
  8
0
  6
ByBlock
 62
     0
370
    -2
100
AcDbLine
 10
-1.0
 20
0.1666666666666666
 30
0.0
 11
-1.0
 21
-0.1666666666666666
 31
0.0
  0
LINE
  5
C4
330
C0
100
AcDbEntity
  8
0
  6
ByBlock
 62
     0
370
    -2
100
AcDbLine
 10
0.0
 20
0.0
 30
0.0
 11
-1.0
 21
0.0
 31
0.0
  0
ENDBLK
  5
C6
330
C0
100
AcDbEntity
  8
0
100
AcDbBlockEnd
  0
BLOCK
  5
C8
330
C7
100
AcDbEntity
  8
0
100
AcDbBlockBegin
  2
DatumFilled45
 70
     0
 10
0.0
 20
0.0
 30
0.0
  3
DatumFilled45
  1

  0
POLYLINE
  5
CA
330
C7
100
AcDbEntity
  8
0
 62
     0
100
AcDb2dPolyline
 66
     1
 10
0.0
 20
0.0
 30
0.0
 70
   128
  0
VERTEX
  5
CB
330
CA
100
AcDbEntity
  8
0
 62
     0
100
AcDbVertex
100
AcDb2dVertex
 10
0.0
 20
1.0
 30
0.0
  0
VERTEX
  5
CC
330
CA
100
AcDbEntity
  8
0
 62
     0
100
AcDbVertex
100
AcDb2dVertex
 10
0.0
 20
-1.0
 30
0.0
  0
VERTEX
  5
CE
330
CA
100
AcDbEntity
  8
0
 62
     0
100
AcDbVertex
100
AcDb2dVertex
 10
-1.0
 20
0.0
 30
0.0
  0
VERTEX
  5
CF
330
CA
100
AcDbEntity
  8
0
 62
     0
100
AcDbVertex
100
AcDb2dVertex
 10
0.0
 20
1.0
 30
0.0
  0
SEQEND
  5
CD
330
CA
100
AcDbEntity
  8
0
 62
     0
  0
SOLID
  5
D0
330
C7
100
AcDbEntity
  8
0
 62
     0
100
AcDbTrace
 10
0.0
 20
1.0
 30
0.0
 11
0.0
 21
-1.0
 31
0.0
 12
-1.0
 22
0.0
 32
0.0
 13
0.0
 23
1.0
 33
0.0
  0
ENDBLK
  5
C9
330
C7
100
AcDbEntity
  8
0
100
AcDbBlockEnd
  0
BLOCK
  5
D3
330
D2
100
AcDbEntity
  8
0
100
AcDbBlockBegin
  2
Tolleranz Liste
 70
     2
 10
0.0
 20
0.0
 30
0.0
  3
Tolleranz Liste
  1

  0
LINE
  5
D5
330
D2
100
AcDbEntity
  8
Titel (ISO)
 62
     7
100
AcDbLine
 10
-190.0
 20
0.0
 30
0.0
 11
0.0
 21
0.0
 31
0.0
  0
LINE
  5
D6
330
D2
100
AcDbEntity
  8
Titel (ISO)
 62
     7
370
    18
100
AcDbLine
 10
-190.0
 20
2.999999999999989
 30
0.0
 11
0.0
 21
2.999999999999989
 31
0.0
  0
LINE
  5
D7
330
D2
100
AcDbEntity
  8
Titel (ISO)
 62
     7
370
    18
100
AcDbLine
 10
-190.0
 20
5.999999999999978
 30
0.0
 11
0.0
 21
5.999999999999978
 31
0.0
  0
LINE
  5
D8
330
D2
100
AcDbEntity
  8
Titel (ISO)
 62
     7
370
    18
100
AcDbLine
 10
-190.0
 20
8.999999999999968
 30
0.0
 11
0.0
 21
8.999999999999968
 31
0.0
  0
LINE
  5
D9
330
D2
100
AcDbEntity
  8
Titel (ISO)
 62
     7
100
AcDbLine
 10
-190.0
 20
18.99999999999996
 30
0.0
 11
0.0
 21
18.99999999999996
 31
0.0
  0
LINE
  5
DA
330
D2
100
AcDbEntity
  8
Titel (ISO)
 62
     7
370
    18
100
AcDbLine
 10
-130.861111
 20
13.7701170573068
 30
0.0
 11
-130.861111
 21
0.0
 31
0.0
  0
LINE
  5
DB
330
D2
100
AcDbEntity
  8
Titel (ISO)
 62
     7
370
    18
100
AcDbLine
 10
-162.972222
 20
13.7701170573068
 30
0.0
 11
-162.972222
 21
0.0
 31
0.0
  0
LINE
  5
DC
330
D2
100
AcDbEntity
  8
Titel (ISO)
 62
     7
370
    18
100
AcDbLine
 10
-154.944444
 20
13.7701170573068
 30
0.0
 11
-154.944444
 21
0.0
 31
0.0
  0
LINE
  5
DD
330
D2
100
AcDbEntity
  8
Titel (ISO)
 62
     7
370
    18
100
AcDbLine
 10
-146.916667
 20
13.7701170573068
 30
0.0
 11
-146.916667
 21
0.0
 31
0.0
  0
LINE
  5
DE
330
D2
100
AcDbEntity
  8
Titel (ISO)
 62
     7
370
    18
100
AcDbLine
 10
-138.888889
 20
13.7701170573068
 30
0.0
 11
-138.888889
 21
0.0
 31
0.0
  0
LINE
  5
DF
330
D2
100
AcDbEntity
  8
Titel (ISO)
 62
     7
370
    18
100
AcDbLine
 10
-183.25
 20
9.070117057306816
 30
0.0
 11
-183.25
 21
0.0
 31
0.0
  0
LINE
  5
E0
330
D2
100
AcDbEntity
  8
Titel (ISO)
 62
     7
100
AcDbLine
 10
-190.0
 20
18.99999999999996
 30
0.0
 11
-190.0
 21
0.0
 31
0.0
  0
LINE
  5
E1
330
D2
100
AcDbEntity
  8
Titel (ISO)
 62
     7
100
AcDbLine
 10
-171.0
 20
18.99999999999996
 30
0.0
 11
-171.0
 21
0.0
 31
0.0
  0
LINE
  5
E2
330
D2
100
AcDbEntity
  8
Titel (ISO)
 62
     7
370
    18
100
AcDbLine
 10
-190.0
 20
11.99999999999997
 30
0.0
 11
-171.0
 21
11.99999999999995
 31
0.0
  0
LINE
  5
E3
330
D2
100
AcDbEntity
  8
Titel (ISO)
  6
Continuous
 62
     7
370
    25
100
AcDbLine
 10
-105.0
 20
7.570117057306813
 30
0.0
 11
-103.5
 21
7.570117057306813
 31
0.0
  0
LINE
  5
E4
330
D2
100
AcDbEntity
  8
Titel (ISO)
  6
Continuous
 62
     7
370
    25
100
AcDbLine
 10
-112.5
 20
7.570117057306813
 30
0.0
 11
-111.0
 21
7.570117057306813
 31
0.0
  0
LINE
  5
E5
330
D2
100
AcDbEntity
  8
Titel (ISO)
 62
     7
370
    18
100
AcDbLine
 10
-122.833333
 20
13.7701170573068
 30
0.0
 11
-122.833333
 21
0.0
 31
0.0
  0
LINE
  5
E6
330
D2
100
AcDbEntity
  8
Titel (ISO)
 62
     7
370
    18
100
AcDbLine
 10
-114.805556
 20
13.7701170573068
 30
0.0
 11
-114.805556
 21
0.0
 31
0.0
  0
LINE
  5
E7
330
D2
100
AcDbEntity
  8
Titel (ISO)
 62
     7
370
    18
100
AcDbLine
 10
-106.777778
 20
13.7701170573068
 30
0.0
 11
-106.777778
 21
0.0
 31
0.0
  0
LINE
  5
E8
330
D2
100
AcDbEntity
  8
Titel (ISO)
 62
     7
100
AcDbLine
 10
-99.25000000000004
 20
18.99999999999996
 30
0.0
 11
-99.25000000000004
 21
0.0
 31
0.0
  0
LINE
  5
E9
330
D2
100
AcDbEntity
  8
Titel (ISO)
 62
     7
370
    18
100
AcDbLine
 10
-95.75000000000002
 20
6.070117057306809
 30
0.0
 11
-95.75000000000002
 21
0.0
 31
0.0
  0
LINE
  5
EA
330
D2
100
AcDbEntity
  8
Titel (ISO)
 62
     7
370
    18
100
AcDbLine
 10
-50.75000000000002
 20
6.070117057306809
 30
0.0
 11
-50.75000000000002
 21
0.0
 31
0.0
  0
LINE
  5
EB
330
D2
100
AcDbEntity
  8
Titel (ISO)
 62
     7
370
    18
100
AcDbLine
 10
-60.25000000000002
 20
6.070117057306809
 30
0.0
 11
-60.25000000000002
 21
0.0
 31
0.0
  0
LINE
  5
EC
330
D2
100
AcDbEntity
  8
Titel (ISO)
 62
     7
370
    18
100
AcDbLine
 10
-69.75000000000001
 20
13.7701170573068
 30
0.0
 11
-69.75000000000001
 21
9.070117057306816
 31
0.0
  0
LINE
  5
ED
330
D2
100
AcDbEntity
  8
Titel (ISO)
 62
     7
370
    18
100
AcDbLine
 10
-60.25000000000002
 20
13.7701170573068
 30
0.0
 11
-60.25000000000002
 21
9.070117057306816
 31
0.0
  0
LINE
  5
EE
330
D2
100
AcDbEntity
  8
Titel (ISO)
 62
     7
370
    18
100
AcDbLine
 10
-50.75000000000002
 20
13.7701170573068
 30
0.0
 11
-50.75000000000002
 21
9.070117057306816
 31
0.0
  0
LINE
  5
EF
330
D2
100
AcDbEntity
  8
Titel (ISO)
 62
     7
370
    18
100
AcDbLine
 10
-30.93750000000003
 20
13.7701170573068
 30
0.0
 11
-30.93750000000003
 21
9.070117057306816
 31
0.0
  0
LINE
  5
F0
330
D2
100
AcDbEntity
  8
Titel (ISO)
 62
     7
370
    18
100
AcDbLine
 10
-20.88650000000005
 20
6.070117057306809
 30
0.0
 11
-20.88650000000005
 21
0.0
 31
0.0
  0
LINE
  5
F1
330
D2
100
AcDbEntity
  8
Titel (ISO)
 62
     7
370
    18
100
AcDbLine
 10
-20.88650000000005
 20
13.7701170573068
 30
0.0
 11
-20.88650000000005
 21
9.070117057306816
 31
0.0
  0
LINE
  5
F2
330
D2
100
AcDbEntity
  8
Titel (ISO)
 62
     7
370
    18
100
AcDbLine
 10
-10.31250000000003
 20
13.7701170573068
 30
0.0
 11
-10.31250000000003
 21
9.070117057306816
 31
0.0
  0
LINE
  5
F3
330
D2
100
AcDbEntity
  8
Titel (ISO)
 62
     7
370
    18
100
AcDbLine
 10
-10.31250000000003
 20
6.070117057306809
 30
0.0
 11
-10.31250000000003
 21
0.0
 31
0.0
  0
LINE
  5
F4
330
D2
100
AcDbEntity
  8
Titel (ISO)
 62
     7
370
    18
100
AcDbLine
 10
-30.93750000000003
 20
6.070117057306809
 30
0.0
 11
-30.93750000000003
 21
0.0
 31
0.0
  0
LINE
  5
F5
330
D2
100
AcDbEntity
  8
Titel (ISO)
 62
     7
100
AcDbLine
 10
0.0
 20
0.0
 30
0.0
 11
0.0
 21
18.99999999999996
 31
0.0
  0
LINE
  5
F6
330
D2
100
AcDbEntity
  8
Titel (ISO)
 62
     7
370
    18
100
AcDbLine
 10
-69.75000000000001
 20
6.070117057306809
 30
0.0
 11
-69.75000000000001
 21
0.0
 31
0.0
  0
LINE
  5
F7
330
D2
100
AcDbEntity
  8
Titel (ISO)
 62
     7
100
AcDbLine
 10
-79.25000000000003
 20
18.99999999999996
 30
0.0
 11
-79.25000000000003
 21
0.0
 31
0.0
  0
LINE
  5
F8
330
D2
100
AcDbEntity
  8
Titel (ISO)
370
    18
100
AcDbLine
 10
-40.98894210789946
 20
8.999999999999968
 30
0.0
 11
-40.98894210789946
 21
13.7701170573068
 31
0.0
  0
LINE
  5
F9
330
D2
100
AcDbEntity
  8
Titel (ISO)
370
    18
100
AcDbLine
 10
-40.81485039283569
 20
5.999999999999978
 30
0.0
 11
-40.81485039283569
 21
0.0
 31
0.0
  0
SPLINE
  5
FA
330
D2
100
AcDbEntity
  8
Titel (ISO)
 62
     7
370
    18
100
AcDbSpline
210
0.0
220
0.0
230
1.0
 70
     8
 71
     4
 72
    15
 73
    10
 74
     0
 42
0.0000000001
 43
0.0000000001
 40
0.0
 40
0.0
 40
0.0
 40
0.0
 40
0.0
 40
0.2448862522902173
 40
0.372542829838283
 40
0.537712414826782
 40
0.6892572885860062
 40
0.7957086571447725
 40
1.0
 40
1.0
 40
1.0
 40
1.0
 40
1.0
 10
-66.28694873925519
 20
7.64651126040853
 30
0.0
 10
-66.28992133139053
 20
7.684326472464615
 30
0.0
 10
-66.30278798934259
 20
7.801058419170612
 30
0.0
 10
-66.54106167347689
 20
7.859647761643628
 30
0.0
 10
-66.76118299621641
 20
7.833028120844396
 30
0.0
 10
-66.95021102053759
 20
7.740235927209404
 30
0.0
 10
-66.9202360191262
 20
7.49058708009608
 30
0.0
 10
-66.82199748484567
 20
7.453245599066988
 30
0.0
 10
-66.75742436020357
 20
7.442433905354555
 30
0.0
 10
-66.71777189204616
 20
7.426104053762667
 30
0.0
  0
LINE
  5
FB
330
D2
100
AcDbEntity
  8
0
100
AcDbLine
 10
-66.26659572485762
 20
7.671004611388436
 30
0.0
 11
-66.37244477211755
 21
7.81624801356239
 31
0.0
  0
ARC
  5
FC
330
D2
100
AcDbEntity
  8
0
100
AcDbCircle
 10
-66.45038101106777
 20
7.648258902765228
 30
0.0
 40
0.1619243095334992
100
AcDbArc
 50
12.14398738960057
 51
60.02290540986514
  0
LINE
  5
FD
330
D2
100
AcDbEntity
  8
0
100
AcDbLine
 10
-66.89670837859369
 20
7.487238148935002
 30
0.0
 11
-66.71468159031151
 21
7.422119968654339
 31
0.0
  0
ARC
  5
FE
330
D2
100
AcDbEntity
  8
0
100
AcDbCircle
 10
-66.6890673438411
 20
7.78069177527314
 30
0.0
 40
0.3462460077174544
100
AcDbArc
 50
237.7261995458496
 51
262.9055232599758
  0
SPLINE
  5
FF
330
D2
100
AcDbEntity
  8
Titel (ISO)
 62
     7
370
    18
100
AcDbSpline
210
0.0
220
0.0
230
1.0
 70
     8
 71
     4
 72
    12
 73
     7
 74
     0
 42
0.0000000001
 43
0.0000000001
 40
0.0
 40
0.0
 40
0.0
 40
0.0
 40
0.0
 40
0.3933269697832906
 40
0.5579414211012799
 40
1.0
 40
1.0
 40
1.0
 40
1.0
 40
1.0
 10
-66.7177718920461
 20
7.426104053762667
 30
0.0
 10
-66.94102867992272
 20
7.36506224211622
 30
0.0
 10
-66.95038095686311
 20
7.40547820884279
 30
0.0
 10
-67.03925767066545
 20
6.865044071034649
 30
0.0
 10
-66.44367713306704
 20
6.956885902430158
 30
0.0
 10
-66.3418945025619
 20
7.013553608348583
 30
0.0
 10
-66.25537378160072
 20
7.154138853519782
 30
0.0
  0
SPLINE
  5
100
330
D2
100
AcDbEntity
  8
Titel (ISO)
 62
     7
370
    18
100
AcDbSpline
210
0.0
220
0.0
230
1.0
 70
     8
 71
     4
 72
    12
 73
     7
 74
     0
 42
0.0000000001
 43
0.0000000001
 40
0.0
 40
0.0
 40
0.0
 40
0.0
 40
0.0
 40
0.3872212693569691
 40
0.5575199507602742
 40
1.0
 40
1.0
 40
1.0
 40
1.0
 40
1.0
 10
-23.59108108251476
 20
7.528905781183539
 30
0.0
 10
-23.70063657153558
 20
7.500278841709757
 30
0.0
 10
-23.87007003961081
 20
7.495055014400904
 30
0.0
 10
-23.87709660835664
 20
6.981211874419681
 30
0.0
 10
-23.33833653350904
 20
7.052090909862052
 30
0.0
 10
-23.20493964281642
 20
7.119913147019296
 30
0.0
 10
-23.12868297206911
 20
7.256940580940742
 30
0.0
  0
SPLINE
  5
101
330
D2
100
AcDbEntity
  8
Titel (ISO)
 62
     7
370
    18
100
AcDbSpline
210
0.0
220
0.0
230
1.0
 70
     8
 71
     4
 72
    15
 73
    10
 74
     0
 42
0.0000000001
 43
0.0000000001
 40
0.0
 40
0.0
 40
0.0
 40
0.0
 40
0.0
 40
0.2448862522902173
 40
0.372542829838283
 40
0.537712414826782
 40
0.6892572885860062
 40
0.7957086571447725
 40
1.0
 40
1.0
 40
1.0
 40
1.0
 40
1.0
 10
-23.16025792972365
 20
7.74931298782949
 30
0.0
 10
-23.16323052185901
 20
7.787128199885575
 30
0.0
 10
-23.17609717981107
 20
7.903860146591572
 30
0.0
 10
-23.41437086394535
 20
7.962449489064589
 30
0.0
 10
-23.63449218668485
 20
7.935829848265356
 30
0.0
 10
-23.82352021100605
 20
7.843037654630364
 30
0.0
 10
-23.79354520959467
 20
7.59338880751704
 30
0.0
 10
-23.69530667531414
 20
7.556047326487949
 30
0.0
 10
-23.630733550672
 20
7.545235632775515
 30
0.0
 10
-23.59108108251462
 20
7.528905781183627
 30
0.0
  0
LINE
  5
102
330
D2
100
AcDbEntity
  8
Skizziergeometrie (ISO)
100
AcDbLine
 10
-23.13990491532607
 20
7.773806338809468
 30
0.0
 11
-23.24575396258602
 21
7.91904974098335
 31
0.0
  0
LINE
  5
103
330
D2
100
AcDbEntity
  8
Skizziergeometrie (ISO)
100
AcDbLine
 10
-23.77001756906214
 20
7.590039876355962
 30
0.0
 11
-23.5879907807799
 21
7.524921696075281
 31
0.0
  0
ARC
  5
104
330
D2
100
AcDbEntity
  8
Skizziergeometrie (ISO)
100
AcDbCircle
 10
-23.32369020153624
 20
7.75106063018617
 30
0.0
 40
0.1619243095335294
100
AcDbArc
 50
12.14398738962304
 51
60.02290540987669
  0
ARC
  5
105
330
D2
100
AcDbEntity
  8
Skizziergeometrie (ISO)
100
AcDbCircle
 10
-23.56237653430956
 20
7.883493502694083
 30
0.0
 40
0.3462460077174411
100
AcDbArc
 50
237.7261995458445
 51
262.9055232599874
  0
TEXT
  5
106
330
D2
100
AcDbEntity
  8
Titel (ISO)
 62
     7
100
AcDbText
 10
-67.77000000000001
 20
10.07011705730681
 30
0.0
 40
1.500000059604644
  1
...50
  7
TolListe_12
100
AcDbText
  0
TEXT
  5
108
330
D2
100
AcDbEntity
  8
Titel (ISO)
 62
     7
100
AcDbText
 10
-67.77000000000001
 20
12.47011705730679
 30
0.0
 40
1.500000059604644
  1
>  10
  7
TolListe_12
100
AcDbText
  0
TEXT
  5
109
330
D2
100
AcDbEntity
  8
Titel (ISO)
 62
     7
100
AcDbText
 10
-77.52000000000001
 20
6.970117057306808
 30
0.0
 40
1.500000059604644
  1
Abmasse ±   Grad und Minuten)
  7
TolListe_12
100
AcDbText
  0
TEXT
  5
10A
330
D2
100
AcDbEntity
  8
Titel (ISO)
 62
     7
100
AcDbText
 10
-77.27000000000001
 20
10.07011705730681
 30
0.0
 40
1.500000059604644
  1
...10
  7
TolListe_12
100
AcDbText
  0
MTEXT
  5
10C
330
D2
100
AcDbEntity
  8
Titel (ISO)
 62
     7
100
AcDbMText
 10
-77.52000000000001
 20
0.4701170374385911
 30
0.0
 40
1.500000059604644
 41
0.0
 46
0.0
 71
     7
 72
     1
  1
\fAIGDT|b0|i0|p0;\fAIGDT|b0|i0;\H1.5000;`\fISOCPEUR|b0|i0;\W0.90;\H1.5000; 1\fAIGDT|b0|i0;\H1.5000;~\fISOCPEUR|b0|i0;\W0.90;\H1.5000;30
  7
TolListe_12-AIGDT
 73
     2
 44
1.0
  0
MTEXT
  5
10E
330
D2
100
AcDbEntity
  8
Titel (ISO)
 62
     7
100
AcDbMText
 10
-77.52000000000001
 20
3.470117037438589
 30
0.0
 40
1.500000059604644
 41
0.0
 46
0.0
 71
     7
 72
     1
  1
\fAIGDT|b0|i0|p0;\fAIGDT|b0|i0;\H1.5000;`\fISOCPEUR|b0|i0;\W0.90;\H1.5000; 1\fAIGDT|b0|i0;\H1.5000;~
  7
TolListe_12-AIGDT
 73
     2
 44
1.0
  0
TEXT
  5
10F
330
D2
100
AcDbEntity
  8
Titel (ISO)
 62
     7
100
AcDbText
 10
-97.77000000000001
 20
11.97011705730681
 30
0.0
 40
1.500000059604644
  1
für Winkelmasse
  7
TolListe_12
100
AcDbText
  0
TEXT
  5
110
330
D2
100
AcDbEntity
  8
Titel (ISO)
 62
     7
100
AcDbText
 10
-97.97000000000004
 20
6.970117057306808
 30
0.0
 40
1.500000059604644
  1
Genauigkeitsgrad
  7
TolListe_12
100
AcDbText
  0
TEXT
  5
111
330
D2
100
AcDbEntity
  8
Titel (ISO)
 62
     7
100
AcDbText
 10
-94.49929825881072
 20
0.9701170573068029
 30
0.0
 40
1.500000059604644
  1
c(grob)
  7
TolListe_12
100
AcDbText
  0
TEXT
  5
112
330
D2
100
AcDbEntity
  8
Titel (ISO)
 62
     7
100
AcDbText
 10
-69.51999999999999
 20
15.97011705730679
 30
0.0
 40
1.500000059604644
  1
Nennmass in mm = Länge des kürzeren Winkelschenkels
  7
TolListe_12
100
AcDbText
  0
TEXT
  5
113
330
D2
100
AcDbEntity
  8
Titel (ISO)
 62
     7
100
AcDbText
 10
-8.332499999999996
 20
10.07011705730681
 30
0.0
 40
1.500000059604644
  1
..400
  7
TolListe_12
100
AcDbText
  0
TEXT
  5
114
330
D2
100
AcDbEntity
  8
Titel (ISO)
 62
     7
100
AcDbText
 10
-8.332499999999996
 20
12.47011705730679
 30
0.0
 40
1.500000059604644
  1
> 120
  7
TolListe_12
100
AcDbText
  0
TEXT
  5
115
330
D2
100
AcDbEntity
  8
Titel (ISO)
 62
     7
100
AcDbText
 10
-18.64499999999999
 20
10.07011705730681
 30
0.0
 40
1.500000059604644
  1
..120
  7
TolListe_12
100
AcDbText
  0
TEXT
  5
116
330
D2
100
AcDbEntity
  8
Titel (ISO)
 62
     7
100
AcDbText
 10
-18.64499999999999
 20
12.47011705730679
 30
0.0
 40
1.500000059604644
  1
>  50
  7
TolListe_12
100
AcDbText
  0
TEXT
  5
117
330
D2
100
AcDbEntity
  8
Titel (ISO)
 62
     7
100
AcDbText
 10
-28.95749999999999
 20
10.07011705730681
 30
0.0
 40
1.500000059604644
  1
...50
  7
TolListe_12
100
AcDbText
  0
TEXT
  5
118
330
D2
100
AcDbEntity
  8
Titel (ISO)
 62
     7
100
AcDbText
 10
-28.95749999999999
 20
12.47011705730679
 30
0.0
 40
1.500000059604644
  1
>  10
  7
TolListe_12
100
AcDbText
  0
TEXT
  5
119
330
D2
100
AcDbEntity
  8
Titel (ISO)
 62
     7
100
AcDbText
 10
-39.26999999999999
 20
10.07011705730681
 30
0.0
 40
1.500000059604644
  1
...10
  7
TolListe_12
100
AcDbText
  0
MTEXT
  5
11A
330
D2
100
AcDbEntity
  8
Titel (ISO)
 62
     7
100
AcDbMText
 10
-17.895
 20
3.770673644983011
 30
0.0
 40
1.500000059604644
 41
0.0
 46
0.0
 71
     7
 72
     1
  1
\fAIGDT|b0|i0|p0;\fAIGDT|b0|i0;\H1.5000;`\fISOCPEUR|b0|i0;\W0.90;\H1.5000; 0,6
  7
TolListe_12-AIGDT
 73
     2
 44
1.0
  0
TEXT
  5
11B
330
D2
100
AcDbEntity
  8
Titel (ISO)
 62
     7
100
AcDbText
 10
-34.52000000000002
 20
6.970117057306808
 30
0.0
 40
1.500000059604644
  1
Abmasse ±     (mm/100mm)
  7
TolListe_12
100
AcDbText
  0
MTEXT
  5
11C
330
D2
100
AcDbEntity
  8
Titel (ISO)
 62
     7
100
AcDbMText
 10
-17.895
 20
0.7706736449830132
 30
0.0
 40
1.500000059604644
 41
0.0
 46
0.0
 71
     7
 72
     1
  1
\fAIGDT|b0|i0|p0;\fAIGDT|b0|i0;\H1.5000;`\fISOCPEUR|b0|i0;\W0.90;\H1.5000; 0,9
  7
TolListe_12-AIGDT
 73
     2
 44
1.0
  0
MTEXT
  5
11D
330
D2
100
AcDbEntity
  8
Titel (ISO)
 62
     7
100
AcDbMText
 10
-68.01999999999999
 20
0.4701170374385911
 30
0.0
 40
1.500000059604644
 41
0.0
 46
0.0
 71
     7
 72
     1
  1
\fAIGDT|b0|i0|p0;\fAIGDT|b0|i0;\H1.5000;`\fISOCPEUR|b0|i0;\W0.80;\H1.5000; 1\fAIGDT|b0|i0;\H1.5000;~
  7
TolListe_12-AIGDT
 73
     2
 44
1.0
  0
MTEXT
  5
11E
330
D2
100
AcDbEntity
  8
Titel (ISO)
 62
     7
100
AcDbMText
 10
-68.01999999999999
 20
3.470117037438589
 30
0.0
 40
1.500000059604644
 41
0.0
 46
0.0
 71
     7
 72
     1
  1
\fAIGDT|b0|i0|p0;\fAIGDT|b0|i0;\H1.5000;`\fISOCPEUR|b0|i0;\W0.80;\H1.5000; 30
  7
TolListe_12-AIGDT
 73
     2
 44
1.0
  0
MTEXT
  5
11F
330
D2
100
AcDbEntity
  8
Titel (ISO)
 62
     7
100
AcDbMText
 10
-58.52
 20
3.470117037438589
 30
0.0
 40
1.500000059604644
 41
0.0
 46
0.0
 71
     7
 72
     1
  1
\fAIGDT|b0|i0|p0;\fAIGDT|b0|i0;\H1.5000;`\fISOCPEUR|b0|i0;\W0.90;\H1.5000; 20
  7
TolListe_12-AIGDT
 73
     2
 44
1.0
  0
TEXT
  5
120
330
D2
100
AcDbEntity
  8
Titel (ISO)
 62
     7
100
AcDbText
 10
-48.77000000000001
 20
10.07011705730681
 30
0.0
 40
1.500000059604644
  1
..400
  7
TolListe_12
100
AcDbText
  0
TEXT
  5
121
330
D2
100
AcDbEntity
  8
Titel (ISO)
 62
     7
100
AcDbText
 10
-48.77000000000001
 20
12.47011705730679
 30
0.0
 40
1.500000059604644
  1
> 120
  7
TolListe_12
100
AcDbText
  0
MTEXT
  5
122
330
D2
100
AcDbEntity
  8
Titel (ISO)
 62
     7
100
AcDbMText
 10
-48.01999999999999
 20
0.4701170374385911
 30
0.0
 40
1.500000059604644
 41
0.0
 46
0.0
 71
     7
 72
     1
  1
\fAIGDT|b0|i0|p0;\fAIGDT|b0|i0;\H1.5000;`\fISOCPEUR|b0|i0;\W0.90;\H1.5000; 15
  7
TolListe_12-AIGDT
 73
     2
 44
1.0
  0
MTEXT
  5
123
330
D2
100
AcDbEntity
  8
Titel (ISO)
 62
     7
100
AcDbMText
 10
-58.52
 20
0.4701170374385911
 30
0.0
 40
1.500000059604644
 41
0.0
 46
0.0
 71
     7
 72
     1
  1
\fAIGDT|b0|i0|p0;\fAIGDT|b0|i0;\H1.5000;`\fISOCPEUR|b0|i0;\W0.90;\H1.5000; 30
  7
TolListe_12-AIGDT
 73
     2
 44
1.0
  0
MTEXT
  5
124
330
D2
100
AcDbEntity
  8
Titel (ISO)
 62
     7
100
AcDbMText
 10
-48.01999999999999
 20
3.470117037438589
 30
0.0
 40
1.500000059604644
 41
0.0
 46
0.0
 71
     7
 72
     1
  1
\fAIGDT|b0|i0|p0;\fAIGDT|b0|i0;\H1.5000;`\fISOCPEUR|b0|i0;\W0.90;\H1.5000; 10
  7
TolListe_12-AIGDT
 73
     2
 44
1.0
  0
TEXT
  5
125
330
D2
100
AcDbEntity
  8
Titel (ISO)
 62
     7
100
AcDbText
 10
-139.52
 20
15.97011705730679
 30
0.0
 40
1.500000059604644
  1
Nennmass mm
  7
TolListe_12
100
AcDbText
  0
MTEXT
  5
126
330
D2
100
AcDbEntity
  8
Titel (ISO)
 62
     7
100
AcDbMText
 10
-38.52
 20
0.7706736449830132
 30
0.0
 40
1.500000059604644
 41
0.0
 46
0.0
 71
     7
 72
     1
  1
\fAIGDT|b0|i0|p0;\fAIGDT|b0|i0;\H1.5000;`\fISOCPEUR|b0|i0;\W0.90;\H1.5000; 2,5
  7
TolListe_12-AIGDT
 73
     2
 44
1.0
  0
MTEXT
  5
127
330
D2
100
AcDbEntity
  8
Titel (ISO)
 62
     7
100
AcDbMText
 10
-28.2075
 20
0.7706736449830132
 30
0.0
 40
1.500000059604644
 41
0.0
 46
0.0
 71
     7
 72
     1
  1
\fAIGDT|b0|i0|p0;\fAIGDT|b0|i0;\H1.5000;`\fISOCPEUR|b0|i0;\W0.90;\H1.5000; 1,7
  7
TolListe_12-AIGDT
 73
     2
 44
1.0
  0
MTEXT
  5
128
330
D2
100
AcDbEntity
  8
Titel (ISO)
 62
     7
100
AcDbMText
 10
-7.582500000000003
 20
3.770673644983011
 30
0.0
 40
1.500000059604644
 41
0.0
 46
0.0
 71
     7
 72
     1
  1
\fAIGDT|b0|i0|p0;\fAIGDT|b0|i0;\H1.5000;`\fISOCPEUR|b0|i0;\W0.90;\H1.5000; 0,3
  7
TolListe_12-AIGDT
 73
     2
 44
1.0
  0
MTEXT
  5
129
330
D2
100
AcDbEntity
  8
Titel (ISO)
 62
     7
100
AcDbMText
 10
-7.582500000000003
 20
0.7706736449830132
 30
0.0
 40
1.500000059604644
 41
0.0
 46
0.0
 71
     7
 72
     1
  1
\fAIGDT|b0|i0|p0;\fAIGDT|b0|i0;\H1.5000;`\fISOCPEUR|b0|i0;\W0.90;\H1.5000; 0,4
  7
TolListe_12-AIGDT
 73
     2
 44
1.0
  0
TEXT
  5
12A
330
D2
100
AcDbEntity
  8
Titel (ISO)
 62
     7
100
AcDbText
 10
-58.26999999999999
 20
10.07011705730681
 30
0.0
 40
1.500000059604644
  1
..120
  7
TolListe_12
100
AcDbText
  0
TEXT
  5
12B
330
D2
100
AcDbEntity
  8
Titel (ISO)
 62
     7
100
AcDbText
 10
-58.26999999999999
 20
12.47011705730679
 30
0.0
 40
1.500000059604644
  1
>  50
  7
TolListe_12
100
AcDbText
  0
MTEXT
  5
12C
330
D2
100
AcDbEntity
  8
Titel (ISO)
 62
     7
100
AcDbMText
 10
-38.52
 20
3.770673644983011
 30
0.0
 40
1.500000059604644
 41
0.0
 46
0.0
 71
     7
 72
     1
  1
\fAIGDT|b0|i0|p0;\fAIGDT|b0|i0;\H1.5000;`\fISOCPEUR|b0|i0;\W0.90;\H1.5000; 1,7
  7
TolListe_12-AIGDT
 73
     2
 44
1.0
  0
MTEXT
  5
12D
330
D2
100
AcDbEntity
  8
Titel (ISO)
 62
     7
100
AcDbMText
 10
-28.2075
 20
3.770673644983011
 30
0.0
 40
1.500000059604644
 41
0.0
 46
0.0
 71
     7
 72
     1
  1
\fAIGDT|b0|i0|p0;\fAIGDT|b0|i0;\H1.5000;`\fISOCPEUR|b0|i0;\W0.90;\H1.5000; 0,9
  7
TolListe_12-AIGDT
 73
     2
 44
1.0
  0
MTEXT
  5
12E
330
D2
100
AcDbEntity
  8
Titel (ISO)
 62
     7
100
AcDbMText
 10
-137.908889
 20
6.770673644983009
 30
0.0
 40
1.500000059604644
 41
0.0
 46
0.0
 71
     7
 72
     1
  1
\fAIGDT|b0|i0|p0;\fAIGDT|b0|i0;\H1.5000;`\fISOCPEUR|b0|i0;\W0.90;\H1.5000; 0,2
  7
TolListe_12-AIGDT
 73
     2
 44
1.0
  0
TEXT
  5
12F
330
D2
100
AcDbEntity
  8
Titel (ISO)
 62
     7
100
AcDbText
 10
-137.908889
 20
10.07011705730681
 30
0.0
 40
1.500000059604644
  1
..400
  7
TolListe_12
100
AcDbText
  0
MTEXT
  5
130
330
D2
100
AcDbEntity
  8
Titel (ISO)
 62
     7
100
AcDbMText
 10
-137.908889
 20
0.7706736449830132
 30
0.0
 40
1.500000059604644
 41
0.0
 46
0.0
 71
     7
 72
     1
  1
\fAIGDT|b0|i0|p0;\fAIGDT|b0|i0;\H1.5000;`\fISOCPEUR|b0|i0;\W0.90;\H1.5000; 1,2
  7
TolListe_12-AIGDT
 73
     2
 44
1.0
  0
MTEXT
  5
131
330
D2
100
AcDbEntity
  8
Titel (ISO)
 62
     7
100
AcDbMText
 10
-137.908889
 20
3.770673644983011
 30
0.0
 40
1.500000059604644
 41
0.0
 46
0.0
 71
     7
 72
     1
  1
\fAIGDT|b0|i0|p0;\fAIGDT|b0|i0;\H1.5000;`\fISOCPEUR|b0|i0;\W0.90;\H1.5000; 0,5
  7
TolListe_12-AIGDT
 73
     2
 44
1.0
  0
MTEXT
  5
132
330
D2
100
AcDbEntity
  8
Titel (ISO)
 62
     7
100
AcDbMText
 10
-145.936667
 20
0.7706736449830132
 30
0.0
 40
1.500000059604644
 41
0.0
 46
0.0
 71
     7
 72
     1
  1
\fAIGDT|b0|i0|p0;\fAIGDT|b0|i0;\H1.5000;`\fISOCPEUR|b0|i0;\W0.90;\H1.5000; 0,8
  7
TolListe_12-AIGDT
 73
     2
 44
1.0
  0
MTEXT
  5
133
330
D2
100
AcDbEntity
  8
Titel (ISO)
 62
     7
100
AcDbMText
 10
-153.964444
 20
0.7706736449830132
 30
0.0
 40
1.500000059604644
 41
0.0
 46
0.0
 71
     7
 72
     1
  1
\fAIGDT|b0|i0|p0;\fAIGDT|b0|i0;\H1.5000;`\fISOCPEUR|b0|i0;\W0.80;\H1.5000; 0,5
  7
TolListe_12-AIGDT
 73
     2
 44
1.0
  0
MTEXT
  5
134
330
D2
100
AcDbEntity
  8
Titel (ISO)
 62
     7
100
AcDbMText
 10
-145.936667
 20
6.770673644983009
 30
0.0
 40
1.500000059604644
 41
0.0
 46
0.0
 71
     7
 72
     1
  1
\fAIGDT|b0|i0|p0;\fAIGDT|b0|i0;\H1.5000;`\fISOCPEUR|b0|i0;\W0.90;\H1.5000; 0,15
  7
TolListe_12-AIGDT
 73
     2
 44
1.0
  0
MTEXT
  5
135
330
D2
100
AcDbEntity
  8
Titel (ISO)
 62
     7
100
AcDbMText
 10
-145.936667
 20
3.770673644983011
 30
0.0
 40
1.500000059604644
 41
0.0
 46
0.0
 71
     7
 72
     1
  1
\fAIGDT|b0|i0|p0;\fAIGDT|b0|i0;\H1.5000;`\fISOCPEUR|b0|i0;\W0.90;\H1.5000; 0,3
  7
TolListe_12-AIGDT
 73
     2
 44
1.0
  0
MTEXT
  5
136
330
D2
100
AcDbEntity
  8
Titel (ISO)
 62
     7
100
AcDbMText
 10
-153.964444
 20
3.770673644983011
 30
0.0
 40
1.500000059604644
 41
0.0
 46
0.0
 71
     7
 72
     1
  1
\fAIGDT|b0|i0|p0;\fAIGDT|b0|i0;\H1.5000;`\fISOCPEUR|b0|i0;\W0.80;\H1.5000; 0,2
  7
TolListe_12-AIGDT
 73
     2
 44
1.0
  0
TEXT
  5
137
330
D2
100
AcDbEntity
  8
Titel (ISO)
 62
     7
100
AcDbText
 10
-153.964444
 20
12.47011705730679
 30
0.0
 40
1.500000059604644
  1
>  6
  7
TolListe_12
100
AcDbText
  0
TEXT
  5
138
330
D2
100
AcDbEntity
  8
Titel (ISO)
 62
     7
100
AcDbText
 10
-153.964444
 20
10.07011705730681
 30
0.0
 40
1.500000059604644
  1
..30
  7
TolListe_12
100
AcDbText
  0
MTEXT
  5
139
330
D2
100
AcDbEntity
  8
Titel (ISO)
 62
     7
100
AcDbMText
 10
-161.992222
 20
3.770673644983011
 30
0.0
 40
1.500000059604644
 41
0.0
 46
0.0
 71
     7
 72
     1
  1
\fAIGDT|b0|i0|p0;\fAIGDT|b0|i0;\H1.5000;`\fISOCPEUR|b0|i0;\W0.90;\H1.5000; 0,1
  7
TolListe_12-AIGDT
 73
     2
 44
1.0
  0
MTEXT
  5
13A
330
D2
100
AcDbEntity
  8
Titel (ISO)
 62
     7
100
AcDbMText
 10
-161.992222
 20
6.770673644983009
 30
0.0
 40
1.500000059604644
 41
0.0
 46
0.0
 71
     7
 72
     1
  1
\fAIGDT|b0|i0|p0;\fAIGDT|b0|i0;\H1.5000;`\fISOCPEUR|b0|i0;\W0.90;\H1.5000; 0,05
  7
TolListe_12-AIGDT
 73
     2
 44
1.0
  0
TEXT
  5
13B
330
D2
100
AcDbEntity
  8
Titel (ISO)
 62
     7
100
AcDbText
 10
-161.992222
 20
10.07011705730681
 30
0.0
 40
1.500000059604644
  1
...6
  7
TolListe_12
100
AcDbText
  0
TEXT
  5
13C
330
D2
100
AcDbEntity
  8
Titel (ISO)
 62
     7
100
AcDbText
 10
-161.992222
 20
12.47011705730679
 30
0.0
 40
1.500000059604644
  1
>  3
  7
TolListe_12
100
AcDbText
  0
MTEXT
  5
13D
330
D2
100
AcDbEntity
  8
Titel (ISO)
 62
     7
100
AcDbMText
 10
-153.964444
 20
6.770673644983009
 30
0.0
 40
1.500000059604644
 41
0.0
 46
0.0
 71
     7
 72
     1
  1
\fAIGDT|b0|i0|p0;\fAIGDT|b0|i0;\H1.5000;`\fISOCPEUR|b0|i0;\W0.80;\H1.5000; 0,1
  7
TolListe_12-AIGDT
 73
     2
 44
1.0
  0
MTEXT
  5
13E
330
D2
100
AcDbEntity
  8
Titel (ISO)
 62
     7
100
AcDbMText
 10
-161.992222
 20
0.7706736449830132
 30
0.0
 40
1.500000059604644
 41
0.0
 46
0.0
 71
     7
 72
     1
  1
\fAIGDT|b0|i0|p0;\fAIGDT|b0|i0;\H1.5000;`\fISOCPEUR|b0|i0;\W0.90;\H1.5000; 0,3
  7
TolListe_12-AIGDT
 73
     2
 44
1.0
  0
MTEXT
  5
13F
330
D2
100
AcDbEntity
  8
Titel (ISO)
 62
     7
100
AcDbMText
 10
-170.02
 20
3.770673644983011
 30
0.0
 40
1.500000059604644
 41
0.0
 46
0.0
 71
     7
 72
     1
  1
\fAIGDT|b0|i0|p0;\fAIGDT|b0|i0;\H1.5000;`\fISOCPEUR|b0|i0;\W0.90;\H1.5000; 0,1
  7
TolListe_12-AIGDT
 73
     2
 44
1.0
  0
MTEXT
  5
140
330
D2
100
AcDbEntity
  8
Titel (ISO)
 62
     7
100
AcDbMText
 10
-170.02
 20
0.7706736449830132
 30
0.0
 40
1.500000059604644
 41
0.0
 46
0.0
 71
     7
 72
     1
  1
\fAIGDT|b0|i0|p0;\fAIGDT|b0|i0;\H1.5000;`\fISOCPEUR|b0|i0;\W0.90;\H1.5000; 0,2
  7
TolListe_12-AIGDT
 73
     2
 44
1.0
  0
MTEXT
  5
141
330
D2
100
AcDbEntity
  8
Titel (ISO)
 62
     7
100
AcDbMText
 10
-170.02
 20
6.770673644983009
 30
0.0
 40
1.500000059604644
 41
0.0
 46
0.0
 71
     7
 72
     1
  1
\fAIGDT|b0|i0|p0;\fAIGDT|b0|i0;\H1.5000;`\fISOCPEUR|b0|i0;\W0.90;\H1.5000; 0,05
  7
TolListe_12-AIGDT
 73
     2
 44
1.0
  0
TEXT
  5
142
330
D2
100
AcDbEntity
  8
Titel (ISO)
 62
     7
100
AcDbText
 10
-170.02
 20
12.47011705730679
 30
0.0
 40
1.500000059604644
  1
>  0,5
  7
TolListe_12
100
AcDbText
  0
TEXT
  5
143
330
D2
100
AcDbEntity
  8
Titel (ISO)
 62
     7
100
AcDbText
 10
-145.936667
 20
10.07011705730681
 30
0.0
 40
1.500000059604644
  1
..120
  7
TolListe_12
100
AcDbText
  0
TEXT
  5
144
330
D2
100
AcDbEntity
  8
Titel (ISO)
 62
     7
100
AcDbText
 10
-145.936667
 20
12.47011705730679
 30
0.0
 40
1.500000059604644
  1
>  30
  7
TolListe_12
100
AcDbText
  0
TEXT
  5
145
330
D2
100
AcDbEntity
  8
Titel (ISO)
 62
     7
100
AcDbText
 10
-137.908889
 20
12.47011705730679
 30
0.0
 40
1.500000059604644
  1
> 120
  7
TolListe_12
100
AcDbText
  0
TEXT
  5
146
330
D2
100
AcDbEntity
  8
Titel (ISO)
 62
     7
100
AcDbText
 10
-88.26999999999999
 20
3.970117057306801
 30
0.0
 40
1.500000059604644
  1
m(mittel)
  7
TolListe_12
100
AcDbText
  0
TEXT
  5
147
330
D2
100
AcDbEntity
  8
Titel (ISO)
 62
     7
100
AcDbText
 10
-189.02
 20
12.89999999999995
 30
0.0
 40
1.500000059604644
  1
für Längenmasse
  7
TolListe_12
100
AcDbText
  0
TEXT
  5
148
330
D2
100
AcDbEntity
  8
Titel (ISO)
 62
     7
100
AcDbText
 10
-189.02
 20
9.899999999999966
 30
0.0
 40
1.500000059604644
  1
Genauigkeitsgrad
  7
TolListe_12
100
AcDbText
  0
TEXT
  5
149
330
D2
100
AcDbEntity
  8
Titel (ISO)
 62
     7
100
AcDbText
 10
-170.02
 20
10.07011705730681
 30
0.0
 40
1.500000059604644
  1
...3
  7
TolListe_12
100
AcDbText
  0
TEXT
  5
14A
330
D2
100
AcDbEntity
  8
Titel (ISO)
 62
     7
100
AcDbText
 10
-182.02
 20
3.899999999999987
 30
0.0
 40
1.500000059604644
  1
m (mittel)
  7
TolListe_12
100
AcDbText
  0
TEXT
  5
14B
330
D2
100
AcDbEntity
  8
Titel (ISO)
 62
     7
100
AcDbText
 10
-182.02
 20
6.899999999999977
 30
0.0
 40
1.500000059604644
  1
f (fein)
  7
TolListe_12
100
AcDbText
  0
TEXT
  5
14C
330
D2
100
AcDbEntity
  8
Titel (ISO)
 62
     7
100
AcDbText
 10
-182.02
 20
0.8999999999999985
 30
0.0
 40
1.500000059604644
  1
c (grob)
  7
TolListe_12
100
AcDbText
  0
TEXT
  5
14D
330
D2
100
AcDbEntity
  8
Titel (ISO)
 62
     7
100
AcDbText
 10
-189.02
 20
14.8701170573068
 30
0.0
 40
1.500000059604644
  1
toleranzen
  7
TolListe_12
100
AcDbText
  0
TEXT
  5
14E
330
D2
100
AcDbEntity
  8
Titel (ISO)
 62
     7
100
AcDbText
 10
-189.02
 20
16.77011705730679
 30
0.0
 40
1.500000059604644
  1
Allgemein-
  7
TolListe_12
100
AcDbText
  0
TEXT
  5
14F
330
D2
100
AcDbEntity
  8
Titel (ISO)
 62
     7
100
AcDbText
 10
-105.797778
 20
10.07011705730681
 30
0.0
 40
1.500000059604644
  1
..8000
  7
TolListe_12
100
AcDbText
  0
TEXT
  5
150
330
D2
100
AcDbEntity
  8
Titel (ISO)
 62
     7
100
AcDbText
 10
-105.797778
 20
12.47011705730679
 30
0.0
 40
1.500000059604644
  1
> 4000
  7
TolListe_12
100
AcDbText
  0
MTEXT
  5
151
330
D2
100
AcDbEntity
  8
Titel (ISO)
 62
     7
100
AcDbMText
 10
-105.797778
 20
3.470117037438589
 30
0.0
 40
1.500000059604644
 41
0.0
 46
0.0
 71
     7
 72
     1
  1
\fAIGDT|b0|i0|p0;\fAIGDT|b0|i0;\H1.5000;`\fISOCPEUR|b0|i0;\W0.80;\H1.5000; 3
  7
TolListe_12-AIGDT
 73
     2
 44
1.0
  0
MTEXT
  5
152
330
D2
100
AcDbEntity
  8
Titel (ISO)
 62
     7
100
AcDbMText
 10
-105.797778
 20
0.4701170374385911
 30
0.0
 40
1.500000059604644
 41
0.0
 46
0.0
 71
     7
 72
     1
  1
\fAIGDT|b0|i0|p0;\fAIGDT|b0|i0;\H1.5000;`\fISOCPEUR|b0|i0;\W0.80;\H1.5000; 5
  7
TolListe_12-AIGDT
 73
     2
 44
1.0
  0
TEXT
  5
153
330
D2
100
AcDbEntity
  8
Titel (ISO)
 62
     7
100
AcDbText
 10
-97.77000000000001
 20
14.37011705730681
 30
0.0
 40
1.500000059604644
  1
toleranzen
  7
TolListe_12
100
AcDbText
  0
TEXT
  5
154
330
D2
100
AcDbEntity
  8
Titel (ISO)
 62
     7
100
AcDbText
 10
-97.77000000000001
 20
16.77011705730679
 30
0.0
 40
1.500000059604644
  1
Allgemein-
  7
TolListe_12
100
AcDbText
  0
MTEXT
  5
155
330
D2
100
AcDbEntity
  8
Titel (ISO)
 62
     7
100
AcDbMText
 10
-121.853333
 20
3.770673644983011
 30
0.0
 40
1.500000059604644
 41
0.0
 46
0.0
 71
     7
 72
     1
  1
\fAIGDT|b0|i0|p0;\fAIGDT|b0|i0;\H1.5000;`\fISOCPEUR|b0|i0;\W0.90;\H1.5000; 1,2
  7
TolListe_12-AIGDT
 73
     2
 44
1.0
  0
MTEXT
  5
156
330
D2
100
AcDbEntity
  8
Titel (ISO)
 62
     7
100
AcDbMText
 10
-121.853333
 20
0.4701170374385911
 30
0.0
 40
1.500000059604644
 41
0.0
 46
0.0
 71
     7
 72
     1
  1
\fAIGDT|b0|i0|p0;\fAIGDT|b0|i0;\H1.5000;`\fISOCPEUR|b0|i0;\W0.90;\H1.5000; 3
  7
TolListe_12-AIGDT
 73
     2
 44
1.0
  0
TEXT
  5
157
330
D2
100
AcDbEntity
  8
Titel (ISO)
 62
     7
100
AcDbText
 10
-113.825556
 20
10.07011705730681
 30
0.0
 40
1.500000059604644
  1
..4000
  7
TolListe_12
100
AcDbText
  0
TEXT
  5
158
330
D2
100
AcDbEntity
  8
Titel (ISO)
 62
     7
100
AcDbText
 10
-113.825556
 20
12.47011705730679
 30
0.0
 40
1.500000059604644
  1
> 2000
  7
TolListe_12
100
AcDbText
  0
TEXT
  5
159
330
D2
100
AcDbEntity
  8
Titel (ISO)
 62
     7
100
AcDbText
 10
-121.853333
 20
10.07011705730681
 30
0.0
 40
1.500000059604644
  1
..2000
  7
TolListe_12
100
AcDbText
  0
TEXT
  5
15A
330
D2
100
AcDbEntity
  8
Titel (ISO)
 62
     7
100
AcDbText
 10
-121.853333
 20
12.47011705730679
 30
0.0
 40
1.500000059604644
  1
> 1000
  7
TolListe_12
100
AcDbText
  0
MTEXT
  5
15B
330
D2
100
AcDbEntity
  8
Titel (ISO)
 62
     7
100
AcDbMText
 10
-121.853333
 20
6.770673644983009
 30
0.0
 40
1.500000059604644
 41
0.0
 46
0.0
 71
     7
 72
     1
  1
\fAIGDT|b0|i0|p0;\fAIGDT|b0|i0;\H1.5000;`\fISOCPEUR|b0|i0;\W0.90;\H1.5000; 0,5
  7
TolListe_12-AIGDT
 73
     2
 44
1.0
  0
MTEXT
  5
15C
330
D2
100
AcDbEntity
  8
Titel (ISO)
 62
     7
100
AcDbMText
 10
-113.825556
 20
3.470117037438589
 30
0.0
 40
1.500000059604644
 41
0.0
 46
0.0
 71
     7
 72
     1
  1
\fAIGDT|b0|i0|p0;\fAIGDT|b0|i0;\H1.5000;`\fISOCPEUR|b0|i0;\W0.90;\H1.5000; 2
  7
TolListe_12-AIGDT
 73
     2
 44
1.0
  0
MTEXT
  5
15D
330
D2
100
AcDbEntity
  8
Titel (ISO)
 62
     7
100
AcDbMText
 10
-113.825556
 20
0.4701170374385911
 30
0.0
 40
1.500000059604644
 41
0.0
 46
0.0
 71
     7
 72
     1
  1
\fAIGDT|b0|i0|p0;\fAIGDT|b0|i0;\H1.5000;`\fISOCPEUR|b0|i0;\W0.90;\H1.5000; 4
  7
TolListe_12-AIGDT
 73
     2
 44
1.0
  0
MTEXT
  5
15E
330
D2
100
AcDbEntity
  8
Titel (ISO)
 62
     7
100
AcDbMText
 10
-129.881111
 20
6.770673644983009
 30
0.0
 40
1.500000059604644
 41
0.0
 46
0.0
 71
     7
 72
     1
  1
\fAIGDT|b0|i0|p0;\fAIGDT|b0|i0;\H1.5000;`\fISOCPEUR|b0|i0;\W0.90;\H1.5000; 0,3
  7
TolListe_12-AIGDT
 73
     2
 44
1.0
  0
TEXT
  5
15F
330
D2
100
AcDbEntity
  8
Titel (ISO)
 62
     7
100
AcDbText
 10
-129.881111
 20
10.07011705730681
 30
0.0
 40
1.500000059604644
  1
..1000
  7
TolListe_12
100
AcDbText
  0
TEXT
  5
160
330
D2
100
AcDbEntity
  8
Titel (ISO)
 62
     7
100
AcDbText
 10
-129.881111
 20
12.47011705730679
 30
0.0
 40
1.500000059604644
  1
>  400
  7
TolListe_12
100
AcDbText
  0
MTEXT
  5
161
330
D2
100
AcDbEntity
  8
Titel (ISO)
 62
     7
100
AcDbMText
 10
-129.881111
 20
0.4701170374385911
 30
0.0
 40
1.500000059604644
 41
0.0
 46
0.0
 71
     7
 72
     1
  1
\fAIGDT|b0|i0|p0;\fAIGDT|b0|i0;\H1.5000;`\fISOCPEUR|b0|i0;\W0.90;\H1.5000; 2
  7
TolListe_12-AIGDT
 73
     2
 44
1.0
  0
MTEXT
  5
162
330
D2
100
AcDbEntity
  8
Titel (ISO)
 62
     7
100
AcDbMText
 10
-129.881111
 20
3.770673644983011
 30
0.0
 40
1.500000059604644
 41
0.0
 46
0.0
 71
     7
 72
     1
  1
\fAIGDT|b0|i0|p0;\fAIGDT|b0|i0;\H1.5000;`\fISOCPEUR|b0|i0;\W0.90;\H1.5000; 0,8
  7
TolListe_12-AIGDT
 73
     2
 44
1.0
  0
TEXT
  5
163
330
D2
100
AcDbEntity
  8
Titel (ISO)
 62
     7
100
AcDbText
 10
-94.3154314551193
 20
3.970117057306801
 30
0.0
 40
1.500000059604644
  1
f(fein)
 41
0.7999999523162842
  7
TolListe_12
100
AcDbText
  0
TEXT
  5
165
330
D2
100
AcDbEntity
  8
Titel (ISO)
 62
     7
100
AcDbText
 10
-189.02
 20
6.399999985098823
 30
0.0
 40
2.000000029802322
  1
 
 41
1.099999904632568
  7
TolListe_12-Arial
 11
-189.02
 21
7.399999999999984
 31
0.0
100
AcDbText
 73
     2
  0
TEXT
  5
167
330
D2
100
AcDbEntity
  8
Titel (ISO)
 62
     7
100
AcDbText
 10
-189.02
 20
3.399999985098824
 30
0.0
 40
2.000000029802322
  1
 
 41
1.099999904632568
  7
TolListe_12-Arial
 11
-189.02
 21
4.399999999999986
 31
0.0
100
AcDbText
 73
     2
  0
TEXT
  5
168
330
D2
100
AcDbEntity
  8
Titel (ISO)
 62
     7
100
AcDbText
 10
-189.02
 20
0.3999999850988356
 30
0.0
 40
2.000000029802322
  1
 
 41
1.099999904632568
  7
TolListe_12-Arial
 11
-189.02
 21
1.399999999999996
 31
0.0
100
AcDbText
 73
     2
  0
ATTDEF
  5
169
102
{ACAD_XDICTIONARY
360
472
102
}
330
D2
100
AcDbEntity
  8
Titel (ISO)
 62
     7
100
AcDbText
 10
-98.35000000000002
 20
3.499999985098831
 30
0.0
 40
2.000000029802322
  1

 41
0.899999976158142
  7
TolListe_12-Arial
 11
-98.35000000000002
 21
4.499999999999992
 31
0.0
100
AcDbAttributeDefinition
  3
TolWinkel_Fein
  2
TolWinkel_Fein
 70
     0
 74
     2
280
     0
  0
ATTDEF
  5
16B
102
{ACAD_XDICTIONARY
360
474
102
}
330
D2
100
AcDbEntity
  8
Titel (ISO)
 62
     7
100
AcDbText
 10
-98.35000000000002
 20
0.4999999850988424
 30
0.0
 40
2.000000029802322
  1
X
 41
1.1
  7
TolListe_12-Arial
100
AcDbAttributeDefinition
  3
TolWinkel_Grob
  2
TolWinkel_Grob_001
 70
     0
280
     0
  0
TEXT
  5
16C
330
D2
100
AcDbEntity
  8
Titel (ISO)
 62
     7
100
AcDbText
 10
-23.10385197106264
 20
6.481150342666044
 30
0.0
 40
1.199999973177909
  1
R
 41
0.899999976158142
  7
TolListe_12
100
AcDbText
  0
ENDBLK
  5
D4
330
D2
100
AcDbEntity
  8
0
100
AcDbBlockEnd
  0
BLOCK
  5
16E
330
16D
100
AcDbEntity
  8
0
100
AcDbBlockBegin
  2
ProtoTyp
 70
     0
 10
0.0
 20
0.0
 30
0.0
  3
ProtoTyp
  1

  0
MTEXT
  5
170
330
16D
100
AcDbEntity
  8
Symbol (ISO)
100
AcDbMText
 10
-15.0
 20
5.000000000000088
 30
0.0
 40
5.0
 41
113.3539674448862
 46
0.0
 71
     9
 72
     5
  1
\fArial|b1|i0;\W1.20;\H5.0000;Prototyp 
  7
Notiztext (DIN)
 73
     1
 44
1.0
  0
ENDBLK
  5
16F
330
16D
100
AcDbEntity
  8
0
100
AcDbBlockEnd
  0
BLOCK
  5
173
330
172
100
AcDbEntity
  8
0
100
AcDbBlockBegin
  2
Logo
 70
     0
 10
0.0
 20
0.0
 30
0.0
  3
Logo
  1

  0
LINE
  5
175
102
{ACAD_REACTORS
330
180
102
}
330
172
100
AcDbEntity
  8
0
100
AcDbLine
 10
-63.82219267516564
 20
13.78707153306683
 30
0.0
 11
-63.44194367516561
 21
13.78707153306683
 31
0.0
  0
SPLINE
  5
176
102
{ACAD_REACTORS
330
180
102
}
330
172
100
AcDbEntity
  8
0
100
AcDbSpline
210
0.0
220
0.0
230
1.0
 70
     8
 71
     3
 72
    13
 73
     9
 74
     0
 42
0.0000000001
 43
0.0000000001
 40
-0.2488465402991201
 40
-0.2488465402991201
 40
-0.2488465402991201
 40
-0.2488465402991201
 40
-0.213514800971061
 40
-0.1813686001396738
 40
-0.151852207945606
 40
-0.122610058815004
 40
-0.0548379298616244
 40
0.0
 40
0.0
 40
0.0
 40
0.0
 10
-63.44194367516561
 20
13.78707153306683
 30
0.0
 10
-63.32417121073874
 20
13.78707153306683
 30
0.0
 10
-63.08419178569152
 20
13.80580234228952
 30
0.0
 10
-62.85168098131063
 20
14.06077992123113
 30
0.0
 10
-62.75106357115923
 20
14.3528991457025
 30
0.0
 10
-62.73688326920373
 20
14.7669903791009
 30
0.0
 10
-62.81190429146026
 20
15.35988989299784
 30
0.0
 10
-63.28410391460164
 20
15.46016853306682
 30
0.0
 10
-63.46689701414039
 20
15.46016853306682
 30
0.0
  0
LINE
  5
177
102
{ACAD_REACTORS
330
180
102
}
330
172
100
AcDbEntity
  8
0
100
AcDbLine
 10
-63.46689701414039
 20
15.46016853306682
 30
0.0
 11
-63.82219267516564
 21
15.46016853306682
 31
0.0
  0
LINE
  5
178
102
{ACAD_REACTORS
330
180
102
}
330
172
100
AcDbEntity
  8
0
100
AcDbLine
 10
-63.82219267516564
 20
15.46016853306682
 30
0.0
 11
-63.82219267516564
 21
13.78707153306683
 31
0.0
  0
LINE
  5
179
102
{ACAD_REACTORS
330
180
102
}
330
172
100
AcDbEntity
  8
0
100
AcDbLine
 10
-63.09258967516566
 20
16.44881753306684
 30
0.0
 11
-65.1910906751657
 21
16.44881753306684
 31
0.0
  0
SPLINE
  5
17A
102
{ACAD_REACTORS
330
180
102
}
330
172
100
AcDbEntity
  8
0
100
AcDbSpline
210
0.0
220
0.0
230
1.0
 70
     8
 71
     3
 72
    11
 73
     7
 74
     0
 42
0.0000000001
 43
0.0000000001
 40
0.2936837717354933
 40
0.2936837717354933
 40
0.2936837717354933
 40
0.2936837717354933
 40
0.3486086586423288
 40
0.4181833865755395
 40
0.4874646771879993
 40
0.5758658507171156
 40
0.5758658507171156
 40
0.5758658507171156
 40
0.5758658507171156
 10
-61.3885963599133
 20
14.628373224245
 30
0.0
 10
-61.3866327111799
 20
14.81461430976022
 30
0.0
 10
-61.42180843855425
 20
15.22586839198035
 30
0.0
 10
-61.65248502722848
 20
15.84811296147202
 30
0.0
 10
-62.25323916657581
 20
16.38211568442156
 30
0.0
 10
-62.79106792157026
 20
16.42485607934071
 30
0.0
 10
-63.09258967516566
 20
16.44881753306684
 30
0.0
  0
SPLINE
  5
17B
102
{ACAD_REACTORS
330
180
102
}
330
172
100
AcDbEntity
  8
0
100
AcDbSpline
210
0.0
220
0.0
230
1.0
 70
     8
 71
     3
 72
    10
 73
     6
 74
     0
 42
0.0000000001
 43
0.0000000001
 40
0.0
 40
0.0
 40
0.0
 40
0.0
 40
0.0653965997920125
 40
0.148785267001393
 40
0.2936837717354933
 40
0.2936837717354933
 40
0.2936837717354933
 40
0.2936837717354933
 10
-63.2280526751656
 20
12.79842253306682
 30
0.0
 10
-63.00807050524145
 20
12.79414883947174
 30
0.0
 10
-62.50758414980694
 20
12.78442566357808
 30
0.0
 10
-61.5936272368743
 20
13.31022024821636
 30
0.0
 10
-61.3937767031296
 20
14.13704668119749
 30
0.0
 10
-61.3885963599133
 20
14.628373224245
 30
0.0
  0
LINE
  5
17C
102
{ACAD_REACTORS
330
180
102
}
330
172
100
AcDbEntity
  8
0
100
AcDbLine
 10
-63.82219267516564
 20
12.79842253306682
 30
0.0
 11
-63.2280526751656
 21
12.79842253306682
 31
0.0
  0
LINE
  5
17D
102
{ACAD_REACTORS
330
180
102
}
330
172
100
AcDbEntity
  8
0
100
AcDbLine
 10
-63.82219267516564
 20
10.44087653306682
 30
0.0
 11
-63.82219267516564
 21
12.79842253306682
 31
0.0
  0
LINE
  5
17E
102
{ACAD_REACTORS
330
180
102
}
330
172
100
AcDbEntity
  8
0
100
AcDbLine
 10
-65.1910906751657
 20
10.44087653306682
 30
0.0
 11
-63.82219267516564
 21
10.44087653306682
 31
0.0
  0
LINE
  5
17F
102
{ACAD_REACTORS
330
180
102
}
330
172
100
AcDbEntity
  8
0
100
AcDbLine
 10
-65.1910906751657
 20
16.44881753306684
 30
0.0
 11
-65.1910906751657
 21
10.44087653306682
 31
0.0
  0
HATCH
  5
180
330
172
100
AcDbEntity
  8
Schraffur (ISO)
100
AcDbHatch
 10
0.0
 20
0.0
 30
0.0
210
0.0
220
0.0
230
1.0
  2
SOLID
 70
     1
 71
     1
 91
        2
 92
        0
 93
        4
 72
     1
 10
-63.82219267516564
 20
13.78707153306683
 11
-63.44194367516561
 21
13.78707153306683
 72
     4
 94
        3
 73
     0
 74
     0
 95
       13
 96
        9
 40
-0.2488465402991201
 40
-0.2488465402991201
 40
-0.2488465402991201
 40
-0.2488465402991201
 40
-0.213514800971061
 40
-0.1813686001396738
 40
-0.151852207945606
 40
-0.122610058815004
 40
-0.0548379298616244
 40
0.0
 40
0.0
 40
0.0
 40
0.0
 10
-63.44194367516561
 20
13.78707153306683
 10
-63.32417121073874
 20
13.78707153306683
 10
-63.08419178569152
 20
13.80580234228952
 10
-62.85168098131063
 20
14.06077992123113
 10
-62.75106357115923
 20
14.3528991457025
 10
-62.73688326920373
 20
14.7669903791009
 10
-62.81190429146026
 20
15.35988989299784
 10
-63.28410391460164
 20
15.46016853306682
 10
-63.46689701414039
 20
15.46016853306682
 72
     1
 10
-63.46689701414039
 20
15.46016853306682
 11
-63.82219267516564
 21
15.46016853306682
 72
     1
 10
-63.82219267516564
 20
15.46016853306682
 11
-63.82219267516564
 21
13.78707153306683
 97
        4
330
175
330
176
330
177
330
178
 92
        1
 93
        7
 72
     1
 10
-63.09258967516566
 20
16.44881753306684
 11
-65.1910906751657
 21
16.44881753306684
 72
     1
 10
-65.1910906751657
 20
16.44881753306684
 11
-65.1910906751657
 21
10.44087653306682
 72
     1
 10
-65.1910906751657
 20
10.44087653306682
 11
-63.82219267516564
 21
10.44087653306682
 72
     1
 10
-63.82219267516564
 20
10.44087653306682
 11
-63.82219267516564
 21
12.79842253306682
 72
     1
 10
-63.82219267516564
 20
12.79842253306682
 11
-63.2280526751656
 21
12.79842253306682
 72
     4
 94
        3
 73
     0
 74
     0
 95
       10
 96
        6
 40
0.0
 40
0.0
 40
0.0
 40
0.0
 40
0.0653965997920125
 40
0.148785267001393
 40
0.2936837717354933
 40
0.2936837717354933
 40
0.2936837717354933
 40
0.2936837717354933
 10
-63.2280526751656
 20
12.79842253306682
 10
-63.00807050524145
 20
12.79414883947174
 10
-62.50758414980694
 20
12.78442566357808
 10
-61.5936272368743
 20
13.31022024821636
 10
-61.3937767031296
 20
14.13704668119749
 10
-61.3885963599133
 20
14.628373224245
 72
     4
 94
        3
 73
     0
 74
     0
 95
       11
 96
        7
 40
0.2936837717354933
 40
0.2936837717354933
 40
0.2936837717354933
 40
0.2936837717354933
 40
0.3486086586423288
 40
0.4181833865755395
 40
0.4874646771879993
 40
0.5758658507171156
 40
0.5758658507171156
 40
0.5758658507171156
 40
0.5758658507171156
 10
-61.3885963599133
 20
14.628373224245
 10
-61.3866327111799
 20
14.81461430976022
 10
-61.42180843855425
 20
15.22586839198035
 10
-61.65248502722848
 20
15.84811296147202
 10
-62.25323916657581
 20
16.38211568442156
 10
-62.79106792157026
 20
16.42485607934071
 10
-63.09258967516566
 20
16.44881753306684
 97
        7
330
179
330
17F
330
17E
330
17D
330
17C
330
17B
330
17A
 75
     0
 76
     1
 98
        1
 10
0.0
 20
0.0
450
        0
451
        0
460
0.0
461
0.0
452
        0
462
0.0
453
        0
470

  0
LINE
  5
181
102
{ACAD_REACTORS
330
18B
102
}
330
172
100
AcDbEntity
  8
0
100
AcDbLine
 10
-60.62809767516559
 20
16.44881753306684
 30
0.0
 11
-60.62809767516559
 21
10.40524878827717
 31
0.0
  0
LINE
  5
182
102
{ACAD_REACTORS
330
18B
102
}
330
172
100
AcDbEntity
  8
0
100
AcDbLine
 10
-58.98987681977541
 20
16.44881753306684
 30
0.0
 11
-60.62809767516559
 21
16.44881753306684
 31
0.0
  0
LINE
  5
183
102
{ACAD_REACTORS
330
18B
102
}
330
172
100
AcDbEntity
  8
0
100
AcDbLine
 10
-57.88930580282222
 20
12.61710582815194
 30
0.0
 11
-58.98987681977541
 21
16.44881753306684
 31
0.0
  0
LINE
  5
184
102
{ACAD_REACTORS
330
18B
102
}
330
172
100
AcDbEntity
  8
0
100
AcDbLine
 10
-57.88930580282222
 20
16.44881753306684
 30
0.0
 11
-57.88930580282222
 21
12.61710582815194
 31
0.0
  0
LINE
  5
185
102
{ACAD_REACTORS
330
18B
102
}
330
172
100
AcDbEntity
  8
0
100
AcDbLine
 10
-56.69354904308139
 20
16.44881753306684
 30
0.0
 11
-57.88930580282222
 21
16.44881753306684
 31
0.0
  0
LINE
  5
186
102
{ACAD_REACTORS
330
18B
102
}
330
172
100
AcDbEntity
  8
0
100
AcDbLine
 10
-56.69354904308139
 20
10.40524878827717
 30
0.0
 11
-56.69354904308139
 21
16.44881753306684
 31
0.0
  0
LINE
  5
187
102
{ACAD_REACTORS
330
18B
102
}
330
172
100
AcDbEntity
  8
0
100
AcDbLine
 10
-58.22507916596087
 20
10.40524878827717
 30
0.0
 11
-56.69354904308139
 21
10.40524878827717
 31
0.0
  0
LINE
  5
188
102
{ACAD_REACTORS
330
18B
102
}
330
172
100
AcDbEntity
  8
0
100
AcDbLine
 10
-59.41118327390213
 20
14.53474967794081
 30
0.0
 11
-58.22507916596087
 21
10.40524878827717
 31
0.0
  0
LINE
  5
189
102
{ACAD_REACTORS
330
18B
102
}
330
172
100
AcDbEntity
  8
0
100
AcDbLine
 10
-59.41118327390213
 20
10.40524878827717
 30
0.0
 11
-59.41118327390213
 21
14.53474967794081
 31
0.0
  0
LINE
  5
18A
102
{ACAD_REACTORS
330
18B
102
}
330
172
100
AcDbEntity
  8
0
100
AcDbLine
 10
-60.62809767516559
 20
10.40524878827717
 30
0.0
 11
-59.41118327390213
 21
10.40524878827717
 31
0.0
  0
HATCH
  5
18B
330
172
100
AcDbEntity
  8
Schraffur (ISO)
100
AcDbHatch
 10
0.0
 20
0.0
 30
0.0
210
0.0
220
0.0
230
1.0
  2
SOLID
 70
     1
 71
     1
 91
        1
 92
        1
 93
       10
 72
     1
 10
-60.62809767516559
 20
16.44881753306684
 11
-60.62809767516559
 21
10.40524878827717
 72
     1
 10
-60.62809767516559
 20
10.40524878827717
 11
-59.41118327390213
 21
10.40524878827717
 72
     1
 10
-59.41118327390213
 20
10.40524878827717
 11
-59.41118327390213
 21
14.53474967794082
 72
     1
 10
-59.41118327390213
 20
14.53474967794081
 11
-58.22507916596087
 21
10.40524878827717
 72
     1
 10
-58.22507916596087
 20
10.40524878827717
 11
-56.69354904308139
 21
10.40524878827717
 72
     1
 10
-56.69354904308139
 20
10.40524878827717
 11
-56.69354904308139
 21
16.44881753306684
 72
     1
 10
-56.69354904308139
 20
16.44881753306684
 11
-57.88930580282222
 21
16.44881753306684
 72
     1
 10
-57.88930580282222
 20
16.44881753306684
 11
-57.88930580282222
 21
12.61710582815194
 72
     1
 10
-57.88930580282222
 20
12.61710582815194
 11
-58.98987681977541
 21
16.44881753306684
 72
     1
 10
-58.98987681977541
 20
16.44881753306684
 11
-60.62809767516559
 21
16.44881753306684
 97
       10
330
181
330
18A
330
189
330
188
330
187
330
186
330
185
330
184
330
183
330
182
 75
     0
 76
     1
 98
        1
 10
0.0
 20
0.0
450
        0
451
        0
460
0.0
461
0.0
452
        0
462
0.0
453
        0
470

  0
LINE
  5
18C
102
{ACAD_REACTORS
330
198
102
}
330
172
100
AcDbEntity
  8
0
100
AcDbLine
 10
-54.3920076751656
 20
11.58162453306683
 30
0.0
 11
-52.27805867516565
 21
11.58162453306683
 31
0.0
  0
LINE
  5
18D
102
{ACAD_REACTORS
330
198
102
}
330
172
100
AcDbEntity
  8
0
100
AcDbLine
 10
-54.3920076751656
 20
12.95052253306684
 30
0.0
 11
-54.3920076751656
 21
11.58162453306683
 31
0.0
  0
LINE
  5
18E
102
{ACAD_REACTORS
330
198
102
}
330
172
100
AcDbEntity
  8
0
100
AcDbLine
 10
-52.49194867516564
 20
12.95052253306684
 30
0.0
 11
-54.3920076751656
 21
12.95052253306684
 31
0.0
  0
LINE
  5
18F
102
{ACAD_REACTORS
330
198
102
}
330
172
100
AcDbEntity
  8
0
100
AcDbLine
 10
-52.49194867516564
 20
14.09127053306683
 30
0.0
 11
-52.49194867516564
 21
12.95052253306684
 31
0.0
  0
LINE
  5
190
102
{ACAD_REACTORS
330
198
102
}
330
172
100
AcDbEntity
  8
0
100
AcDbLine
 10
-54.3920076751656
 20
14.09127053306683
 30
0.0
 11
-52.49194867516564
 21
14.09127053306683
 31
0.0
  0
LINE
  5
191
102
{ACAD_REACTORS
330
198
102
}
330
172
100
AcDbEntity
  8
0
100
AcDbLine
 10
-54.3920076751656
 20
15.30806953306683
 30
0.0
 11
-54.3920076751656
 21
14.09127053306683
 31
0.0
  0
LINE
  5
192
102
{ACAD_REACTORS
330
198
102
}
330
172
100
AcDbEntity
  8
0
100
AcDbLine
 10
-52.36836767516571
 20
15.30806953306683
 30
0.0
 11
-54.3920076751656
 21
15.30806953306683
 31
0.0
  0
LINE
  5
193
102
{ACAD_REACTORS
330
198
102
}
330
172
100
AcDbEntity
  8
0
100
AcDbLine
 10
-52.36836767516571
 20
16.44881753306684
 30
0.0
 11
-52.36836767516571
 21
15.30806953306683
 31
0.0
  0
LINE
  5
194
102
{ACAD_REACTORS
330
198
102
}
330
172
100
AcDbEntity
  8
0
100
AcDbLine
 10
-55.76090567516565
 20
16.44881753306684
 30
0.0
 11
-52.36836767516571
 21
16.44881753306684
 31
0.0
  0
LINE
  5
195
102
{ACAD_REACTORS
330
198
102
}
330
172
100
AcDbEntity
  8
0
100
AcDbLine
 10
-55.76090567516565
 20
10.44087653306682
 30
0.0
 11
-55.76090567516565
 21
16.44881753306684
 31
0.0
  0
LINE
  5
196
102
{ACAD_REACTORS
330
198
102
}
330
172
100
AcDbEntity
  8
0
100
AcDbLine
 10
-52.27805867516565
 20
10.44087653306682
 30
0.0
 11
-55.76090567516565
 21
10.44087653306682
 31
0.0
  0
LINE
  5
197
102
{ACAD_REACTORS
330
198
102
}
330
172
100
AcDbEntity
  8
0
100
AcDbLine
 10
-52.27805867516565
 20
11.58162453306683
 30
0.0
 11
-52.27805867516565
 21
10.44087653306682
 31
0.0
  0
HATCH
  5
198
330
172
100
AcDbEntity
  8
Schraffur (ISO)
100
AcDbHatch
 10
0.0
 20
0.0
 30
0.0
210
0.0
220
0.0
230
1.0
  2
SOLID
 70
     1
 71
     1
 91
        1
 92
        1
 93
       12
 72
     1
 10
-54.3920076751656
 20
11.58162453306683
 11
-52.27805867516565
 21
11.58162453306683
 72
     1
 10
-52.27805867516565
 20
11.58162453306683
 11
-52.27805867516565
 21
10.44087653306682
 72
     1
 10
-52.27805867516565
 20
10.44087653306682
 11
-55.76090567516565
 21
10.44087653306682
 72
     1
 10
-55.76090567516565
 20
10.44087653306682
 11
-55.76090567516565
 21
16.44881753306684
 72
     1
 10
-55.76090567516565
 20
16.44881753306684
 11
-52.36836767516571
 21
16.44881753306684
 72
     1
 10
-52.36836767516571
 20
16.44881753306684
 11
-52.36836767516571
 21
15.30806953306683
 72
     1
 10
-52.36836767516571
 20
15.30806953306683
 11
-54.3920076751656
 21
15.30806953306683
 72
     1
 10
-54.3920076751656
 20
15.30806953306683
 11
-54.3920076751656
 21
14.09127053306683
 72
     1
 10
-54.3920076751656
 20
14.09127053306683
 11
-52.49194867516564
 21
14.09127053306683
 72
     1
 10
-52.49194867516564
 20
14.09127053306683
 11
-52.49194867516564
 21
12.95052253306684
 72
     1
 10
-52.49194867516564
 20
12.95052253306684
 11
-54.3920076751656
 21
12.95052253306684
 72
     1
 10
-54.3920076751656
 20
12.95052253306684
 11
-54.3920076751656
 21
11.58162453306683
 97
       12
330
18C
330
197
330
196
330
195
330
194
330
193
330
192
330
191
330
190
330
18F
330
18E
330
18D
 75
     0
 76
     1
 98
        1
 10
0.0
 20
0.0
450
        0
451
        0
460
0.0
461
0.0
452
        0
462
0.0
453
        0
470

  0
SPLINE
  5
199
102
{ACAD_REACTORS
330
1A1
102
}
330
172
100
AcDbEntity
  8
0
100
AcDbSpline
210
0.0
220
0.0
230
1.0
 70
     8
 71
     3
 72
    15
 73
    11
 74
     0
 42
0.0000000001
 43
0.0000000001
 40
0.0
 40
0.0
 40
0.0
 40
0.0
 40
0.0672548563799885
 40
0.1521664902326495
 40
0.2281703146548317
 40
0.3255600897830795
 40
0.4120495207317158
 40
0.4985389234182298
 40
0.5654159866690202
 40
0.6509023544104405
 40
0.6509023544104405
 40
0.6509023544104405
 40
0.6509023544104405
 10
-51.7302616751656
 20
12.50372953306684
 30
0.0
 10
-51.72250972741318
 20
12.28042993765319
 30
0.0
 10
-51.7049706715673
 20
11.77520670867943
 30
0.0
 10
-51.45830183546912
 20
11.01272899934195
 30
0.0
 10
-50.70619437300852
 20
10.49759629449973
 30
0.0
 10
-49.8251698126684
 20
10.4107231579618
 30
0.0
 10
-48.92313273835776
 20
10.49749520180978
 30
0.0
 10
-48.18766130508738
 20
10.93968926311738
 30
0.0
 10
-47.88526518983896
 20
11.71052808496217
 30
0.0
 10
-47.86377509624168
 20
12.21864242747865
 30
0.0
 10
-47.85171767516569
 20
12.50372953306684
 30
0.0
  0
LINE
  5
19A
102
{ACAD_REACTORS
330
1A1
102
}
330
172
100
AcDbEntity
  8
0
100
AcDbLine
 10
-51.7302616751656
 20
16.44881753306684
 30
0.0
 11
-51.7302616751656
 21
12.50372953306684
 31
0.0
  0
LINE
  5
19B
102
{ACAD_REACTORS
330
1A1
102
}
330
172
100
AcDbEntity
  8
0
100
AcDbLine
 10
-50.36136367516565
 20
16.44881753306684
 30
0.0
 11
-51.7302616751656
 21
16.44881753306684
 31
0.0
  0
LINE
  5
19C
102
{ACAD_REACTORS
330
1A1
102
}
330
172
100
AcDbEntity
  8
0
100
AcDbLine
 10
-50.36136367516565
 20
12.15437597654793
 30
0.0
 11
-50.36136367516565
 21
16.44881753306684
 31
0.0
  0
SPLINE
  5
19D
102
{ACAD_REACTORS
330
1A1
102
}
330
172
100
AcDbEntity
  8
0
100
AcDbSpline
210
0.0
220
0.0
230
1.0
 70
     8
 71
     3
 72
    12
 73
     8
 74
     0
 42
0.0000000001
 43
0.0000000001
 40
0.0
 40
0.0
 40
0.0
 40
0.0
 40
0.0459373561447192
 40
0.0841298945751798
 40
0.1189845232173717
 40
0.1628560898790358
 40
0.2038542643486715
 40
0.2038542643486715
 40
0.2038542643486715
 40
0.2038542643486715
 10
-49.22061567516561
 20
12.15437553306683
 30
0.0
 10
-49.2268789446577
 20
11.99485470427934
 30
0.0
 10
-49.23834952647364
 20
11.70270749262533
 30
0.0
 10
-49.57024113653026
 20
11.41847892432864
 30
0.0
 10
-49.99594522261111
 20
11.40074526513182
 30
0.0
 10
-50.29158571586791
 20
11.73973014957667
 30
0.0
 10
-50.33863533382652
 20
12.01931596640863
 30
0.0
 10
-50.36136367516565
 20
12.15437597654793
 30
0.0
  0
LINE
  5
19E
102
{ACAD_REACTORS
330
1A1
102
}
330
172
100
AcDbEntity
  8
0
100
AcDbLine
 10
-49.22061567516561
 20
16.44881753306684
 30
0.0
 11
-49.22061567516561
 21
12.15437553306683
 31
0.0
  0
LINE
  5
19F
102
{ACAD_REACTORS
330
1A1
102
}
330
172
100
AcDbEntity
  8
0
100
AcDbLine
 10
-47.85171767516569
 20
16.44881753306684
 30
0.0
 11
-49.22061567516561
 21
16.44881753306684
 31
0.0
  0
LINE
  5
1A0
102
{ACAD_REACTORS
330
1A1
102
}
330
172
100
AcDbEntity
  8
0
100
AcDbLine
 10
-47.85171767516569
 20
12.50372953306684
 30
0.0
 11
-47.85171767516569
 21
16.44881753306684
 31
0.0
  0
HATCH
  5
1A1
330
172
100
AcDbEntity
  8
Schraffur (ISO)
100
AcDbHatch
 10
0.0
 20
0.0
 30
0.0
210
0.0
220
0.0
230
1.0
  2
SOLID
 70
     1
 71
     1
 91
        1
 92
        1
 93
        8
 72
     4
 94
        3
 73
     0
 74
     0
 95
       15
 96
       11
 40
0.0
 40
0.0
 40
0.0
 40
0.0
 40
0.0672548563799885
 40
0.1521664902326495
 40
0.2281703146548317
 40
0.3255600897830795
 40
0.4120495207317158
 40
0.4985389234182298
 40
0.5654159866690202
 40
0.6509023544104405
 40
0.6509023544104405
 40
0.6509023544104405
 40
0.6509023544104405
 10
-51.7302616751656
 20
12.50372953306684
 10
-51.72250972741318
 20
12.28042993765319
 10
-51.7049706715673
 20
11.77520670867943
 10
-51.45830183546912
 20
11.01272899934195
 10
-50.70619437300852
 20
10.49759629449973
 10
-49.8251698126684
 20
10.4107231579618
 10
-48.92313273835776
 20
10.49749520180978
 10
-48.18766130508738
 20
10.93968926311738
 10
-47.88526518983896
 20
11.71052808496217
 10
-47.86377509624168
 20
12.21864242747865
 10
-47.85171767516569
 20
12.50372953306684
 72
     1
 10
-47.85171767516569
 20
12.50372953306684
 11
-47.85171767516569
 21
16.44881753306684
 72
     1
 10
-47.85171767516569
 20
16.44881753306684
 11
-49.22061567516561
 21
16.44881753306684
 72
     1
 10
-49.22061567516561
 20
16.44881753306684
 11
-49.22061567516561
 21
12.15437553306683
 72
     4
 94
        3
 73
     0
 74
     0
 95
       12
 96
        8
 40
0.0
 40
0.0
 40
0.0
 40
0.0
 40
0.0459373561447192
 40
0.0841298945751798
 40
0.1189845232173717
 40
0.1628560898790358
 40
0.2038542643486715
 40
0.2038542643486715
 40
0.2038542643486715
 40
0.2038542643486715
 10
-49.22061567516561
 20
12.15437553306683
 10
-49.2268789446577
 20
11.99485470427934
 10
-49.23834952647364
 20
11.70270749262533
 10
-49.57024113653026
 20
11.41847892432864
 10
-49.99594522261111
 20
11.40074526513182
 10
-50.29158571586791
 20
11.73973014957667
 10
-50.33863533382652
 20
12.01931596640863
 10
-50.36136367516565
 20
12.15437597654793
 72
     1
 10
-50.36136367516565
 20
12.15437597654793
 11
-50.36136367516565
 21
16.44881753306684
 72
     1
 10
-50.36136367516565
 20
16.44881753306684
 11
-51.7302616751656
 21
16.44881753306684
 72
     1
 10
-51.7302616751656
 20
16.44881753306684
 11
-51.7302616751656
 21
12.50372953306684
 97
        8
330
199
330
1A0
330
19F
330
19E
330
19D
330
19C
330
19B
330
19A
 75
     0
 76
     1
 98
        1
 10
0.0
 20
0.0
450
        0
451
        0
460
0.0
461
0.0
452
        0
462
0.0
453
        0
470

  0
LINE
  5
1A2
102
{ACAD_REACTORS
330
1B0
102
}
330
172
100
AcDbEntity
  8
0
100
AcDbLine
 10
-44.98677667516563
 20
16.44881753306684
 30
0.0
 11
-44.26073767516562
 21
12.52868353306683
 31
0.0
  0
LINE
  5
1A3
102
{ACAD_REACTORS
330
1B0
102
}
330
172
100
AcDbEntity
  8
0
100
AcDbLine
 10
-47.01516967516568
 20
16.44881753306684
 30
0.0
 11
-44.98677667516563
 21
16.44881753306684
 31
0.0
  0
LINE
  5
1A4
102
{ACAD_REACTORS
330
1B0
102
}
330
172
100
AcDbEntity
  8
0
100
AcDbLine
 10
-47.01516967516568
 20
10.44087653306682
 30
0.0
 11
-47.01516967516568
 21
16.44881753306684
 31
0.0
  0
LINE
  5
1A5
102
{ACAD_REACTORS
330
1B0
102
}
330
172
100
AcDbEntity
  8
0
100
AcDbLine
 10
-45.79837167516565
 20
10.44087653306682
 30
0.0
 11
-47.01516967516568
 21
10.44087653306682
 31
0.0
  0
LINE
  5
1A6
102
{ACAD_REACTORS
330
1B0
102
}
330
172
100
AcDbEntity
  8
0
100
AcDbLine
 10
-45.79837167516565
 20
15.1559695330669
 30
0.0
 11
-45.79837167516565
 21
10.44087653306682
 31
0.0
  0
LINE
  5
1A7
102
{ACAD_REACTORS
330
1B0
102
}
330
172
100
AcDbEntity
  8
0
100
AcDbLine
 10
-44.83467667516558
 20
10.44087653306682
 30
0.0
 11
-45.79837167516565
 21
15.1559695330669
 31
0.0
  0
LINE
  5
1A8
102
{ACAD_REACTORS
330
1B0
102
}
330
172
100
AcDbEntity
  8
0
100
AcDbLine
 10
-43.74621267516555
 20
10.44087653306682
 30
0.0
 11
-44.83467667516558
 21
10.44087653306682
 31
0.0
  0
LINE
  5
1A9
102
{ACAD_REACTORS
330
1B0
102
}
330
172
100
AcDbEntity
  8
0
100
AcDbLine
 10
-42.83242567516563
 20
15.15596953306682
 30
0.0
 11
-43.74621267516555
 21
10.44087653306682
 31
0.0
  0
LINE
  5
1AA
102
{ACAD_REACTORS
330
1B0
102
}
330
172
100
AcDbEntity
  8
0
100
AcDbLine
 10
-42.83242567516563
 20
10.44087653306682
 30
0.0
 11
-42.83242567516563
 21
15.15596953306682
 31
0.0
  0
LINE
  5
1AB
102
{ACAD_REACTORS
330
1B0
102
}
330
172
100
AcDbEntity
  8
0
100
AcDbLine
 10
-41.53957767516555
 20
10.44087653306682
 30
0.0
 11
-42.83242567516563
 21
10.44087653306682
 31
0.0
  0
LINE
  5
1AC
102
{ACAD_REACTORS
330
1B0
102
}
330
172
100
AcDbEntity
  8
0
100
AcDbLine
 10
-41.53957767516555
 20
16.44881753306684
 30
0.0
 11
-41.53957767516555
 21
10.44087653306682
 31
0.0
  0
LINE
  5
1AD
102
{ACAD_REACTORS
330
1B0
102
}
330
172
100
AcDbEntity
  8
0
100
AcDbLine
 10
-43.54301667516562
 20
16.44881753306684
 30
0.0
 11
-41.53957767516555
 21
16.44881753306684
 31
0.0
  0
LINE
  5
1AE
102
{ACAD_REACTORS
330
1B0
102
}
330
172
100
AcDbEntity
  8
0
100
AcDbLine
 10
-44.24410167516565
 20
12.52868353306683
 30
0.0
 11
-43.54301667516562
 21
16.44881753306684
 31
0.0
  0
LINE
  5
1AF
102
{ACAD_REACTORS
330
1B0
102
}
330
172
100
AcDbEntity
  8
0
100
AcDbLine
 10
-44.26073767516562
 20
12.52868353306683
 30
0.0
 11
-44.24410167516565
 21
12.52868353306683
 31
0.0
  0
HATCH
  5
1B0
330
172
100
AcDbEntity
  8
Schraffur (ISO)
100
AcDbHatch
 10
0.0
 20
0.0
 30
0.0
210
0.0
220
0.0
230
1.0
  2
SOLID
 70
     1
 71
     1
 91
        1
 92
        1
 93
       14
 72
     1
 10
-44.98677667516563
 20
16.44881753306684
 11
-44.26073767516562
 21
12.52868353306683
 72
     1
 10
-44.26073767516562
 20
12.52868353306683
 11
-44.24410167516565
 21
12.52868353306683
 72
     1
 10
-44.24410167516565
 20
12.52868353306683
 11
-43.54301667516562
 21
16.44881753306684
 72
     1
 10
-43.54301667516562
 20
16.44881753306684
 11
-41.53957767516555
 21
16.44881753306684
 72
     1
 10
-41.53957767516555
 20
16.44881753306684
 11
-41.53957767516555
 21
10.44087653306682
 72
     1
 10
-41.53957767516555
 20
10.44087653306682
 11
-42.83242567516563
 21
10.44087653306682
 72
     1
 10
-42.83242567516563
 20
10.44087653306682
 11
-42.83242567516563
 21
15.15596953306682
 72
     1
 10
-42.83242567516563
 20
15.15596953306682
 11
-43.74621267516555
 21
10.44087653306682
 72
     1
 10
-43.74621267516555
 20
10.44087653306682
 11
-44.83467667516558
 21
10.44087653306682
 72
     1
 10
-44.83467667516558
 20
10.44087653306682
 11
-45.79837167516565
 21
15.1559695330669
 72
     1
 10
-45.79837167516565
 20
15.1559695330669
 11
-45.79837167516565
 21
10.44087653306682
 72
     1
 10
-45.79837167516565
 20
10.44087653306682
 11
-47.01516967516568
 21
10.44087653306682
 72
     1
 10
-47.01516967516568
 20
10.44087653306682
 11
-47.01516967516568
 21
16.44881753306684
 72
     1
 10
-47.01516967516568
 20
16.44881753306684
 11
-44.98677667516563
 21
16.44881753306684
 97
       14
330
1A2
330
1AF
330
1AE
330
1AD
330
1AC
330
1AB
330
1AA
330
1A9
330
1A8
330
1A7
330
1A6
330
1A5
330
1A4
330
1A3
 75
     0
 76
     1
 98
        1
 10
0.0
 20
0.0
450
        0
451
        0
460
0.0
461
0.0
452
        0
462
0.0
453
        0
470

  0
LINE
  5
1B1
102
{ACAD_REACTORS
330
1BD
102
}
330
172
100
AcDbEntity
  8
0
100
AcDbLine
 10
-39.2521406751656
 20
12.64632353306684
 30
0.0
 11
-38.24923267516571
 21
12.64632353306684
 31
0.0
  0
LINE
  5
1B2
102
{ACAD_REACTORS
330
1BD
102
}
330
172
100
AcDbEntity
  8
0
100
AcDbLine
 10
-38.24923267516571
 20
12.64632353306684
 30
0.0
 11
-38.75068667516565
 21
15.46016853306682
 31
0.0
  0
LINE
  5
1B3
102
{ACAD_REACTORS
330
1BD
102
}
330
172
100
AcDbEntity
  8
0
100
AcDbLine
 10
-38.75068667516565
 20
15.46016853306682
 30
0.0
 11
-38.76732267516559
 21
15.46016853306682
 31
0.0
  0
LINE
  5
1B4
102
{ACAD_REACTORS
330
1BD
102
}
330
172
100
AcDbEntity
  8
0
100
AcDbLine
 10
-38.76732267516559
 20
15.46016853306682
 30
0.0
 11
-39.2521406751656
 21
12.64632353306684
 31
0.0
  0
LINE
  5
1B5
102
{ACAD_REACTORS
330
1BD
102
}
330
172
100
AcDbEntity
  8
0
100
AcDbLine
 10
-37.80719267516563
 20
10.44087653306682
 30
0.0
 11
-36.36818667516561
 21
10.44087653306682
 31
0.0
  0
LINE
  5
1B6
102
{ACAD_REACTORS
330
1BD
102
}
330
172
100
AcDbEntity
  8
0
100
AcDbLine
 10
-38.02227067516558
 20
11.65767453306683
 30
0.0
 11
-37.80719267516563
 21
10.44087653306682
 31
0.0
  0
LINE
  5
1B7
102
{ACAD_REACTORS
330
1BD
102
}
330
172
100
AcDbEntity
  8
0
100
AcDbLine
 10
-39.43751167516563
 20
11.65767453306683
 30
0.0
 11
-38.02227067516558
 21
11.65767453306683
 31
0.0
  0
LINE
  5
1B8
102
{ACAD_REACTORS
330
1BD
102
}
330
172
100
AcDbEntity
  8
0
100
AcDbLine
 10
-39.64427267516566
 20
10.44087653306682
 30
0.0
 11
-39.43751167516563
 21
11.65767453306683
 31
0.0
  0
LINE
  5
1B9
102
{ACAD_REACTORS
330
1BD
102
}
330
172
100
AcDbEntity
  8
0
100
AcDbLine
 10
-41.0832786751656
 20
10.44087653306682
 30
0.0
 11
-39.64427267516566
 21
10.44087653306682
 31
0.0
  0
LINE
  5
1BA
102
{ACAD_REACTORS
330
1BD
102
}
330
172
100
AcDbEntity
  8
0
100
AcDbLine
 10
-39.57772867516564
 20
16.44881753306684
 30
0.0
 11
-41.0832786751656
 21
10.44087653306682
 31
0.0
  0
LINE
  5
1BB
102
{ACAD_REACTORS
330
1BD
102
}
330
172
100
AcDbEntity
  8
0
100
AcDbLine
 10
-37.84046467516564
 20
16.44881753306684
 30
0.0
 11
-39.57772867516564
 21
16.44881753306684
 31
0.0
  0
LINE
  5
1BC
102
{ACAD_REACTORS
330
1BD
102
}
330
172
100
AcDbEntity
  8
0
100
AcDbLine
 10
-36.36818667516561
 20
10.44087653306682
 30
0.0
 11
-37.84046467516564
 21
16.44881753306684
 31
0.0
  0
HATCH
  5
1BD
330
172
100
AcDbEntity
  8
Schraffur (ISO)
100
AcDbHatch
 10
0.0
 20
0.0
 30
0.0
210
0.0
220
0.0
230
1.0
  2
SOLID
 70
     1
 71
     1
 91
        2
 92
        0
 93
        4
 72
     1
 10
-39.2521406751656
 20
12.64632353306684
 11
-38.24923267516571
 21
12.64632353306684
 72
     1
 10
-38.24923267516571
 20
12.64632353306684
 11
-38.75068667516565
 21
15.46016853306682
 72
     1
 10
-38.75068667516565
 20
15.46016853306682
 11
-38.76732267516559
 21
15.46016853306682
 72
     1
 10
-38.76732267516559
 20
15.46016853306682
 11
-39.2521406751656
 21
12.64632353306684
 97
        4
330
1B1
330
1B2
330
1B3
330
1B4
 92
        1
 93
        8
 72
     1
 10
-37.80719267516563
 20
10.44087653306682
 11
-36.36818667516561
 21
10.44087653306682
 72
     1
 10
-36.36818667516561
 20
10.44087653306682
 11
-37.84046467516564
 21
16.44881753306684
 72
     1
 10
-37.84046467516564
 20
16.44881753306684
 11
-39.57772867516564
 21
16.44881753306684
 72
     1
 10
-39.57772867516564
 20
16.44881753306684
 11
-41.0832786751656
 21
10.44087653306682
 72
     1
 10
-41.0832786751656
 20
10.44087653306682
 11
-39.64427267516566
 21
10.44087653306682
 72
     1
 10
-39.64427267516566
 20
10.44087653306682
 11
-39.43751167516563
 21
11.65767453306683
 72
     1
 10
-39.43751167516563
 20
11.65767453306683
 11
-38.02227067516558
 21
11.65767453306683
 72
     1
 10
-38.02227067516558
 20
11.65767453306683
 11
-37.80719267516563
 21
10.44087653306682
 97
        8
330
1B5
330
1BC
330
1BB
330
1BA
330
1B9
330
1B8
330
1B7
330
1B6
 75
     0
 76
     1
 98
        1
 10
0.0
 20
0.0
450
        0
451
        0
460
0.0
461
0.0
452
        0
462
0.0
453
        0
470

  0
LINE
  5
1BE
102
{ACAD_REACTORS
330
1C6
102
}
330
172
100
AcDbEntity
  8
0
100
AcDbLine
 10
-33.7824906751656
 20
15.30806953306683
 30
0.0
 11
-33.7824906751656
 21
10.44087653306682
 31
0.0
  0
LINE
  5
1BF
102
{ACAD_REACTORS
330
1C6
102
}
330
172
100
AcDbEntity
  8
0
100
AcDbLine
 10
-32.52410267516563
 20
15.30806953306683
 30
0.0
 11
-33.7824906751656
 21
15.30806953306683
 31
0.0
  0
LINE
  5
1C0
102
{ACAD_REACTORS
330
1C6
102
}
330
172
100
AcDbEntity
  8
0
100
AcDbLine
 10
-32.52410267516563
 20
16.44881753306684
 30
0.0
 11
-32.52410267516563
 21
15.30806953306683
 31
0.0
  0
LINE
  5
1C1
102
{ACAD_REACTORS
330
1C6
102
}
330
172
100
AcDbEntity
  8
0
100
AcDbLine
 10
-36.36818667516561
 20
16.44881753306684
 30
0.0
 11
-32.52410267516563
 21
16.44881753306684
 31
0.0
  0
LINE
  5
1C2
102
{ACAD_REACTORS
330
1C6
102
}
330
172
100
AcDbEntity
  8
0
100
AcDbLine
 10
-36.36818667516561
 20
15.30806953306683
 30
0.0
 11
-36.36818667516561
 21
16.44881753306684
 31
0.0
  0
LINE
  5
1C3
102
{ACAD_REACTORS
330
1C6
102
}
330
172
100
AcDbEntity
  8
0
100
AcDbLine
 10
-35.15138767516564
 20
15.30806953306683
 30
0.0
 11
-36.36818667516561
 21
15.30806953306683
 31
0.0
  0
LINE
  5
1C4
102
{ACAD_REACTORS
330
1C6
102
}
330
172
100
AcDbEntity
  8
0
100
AcDbLine
 10
-35.15138767516564
 20
10.44087653306682
 30
0.0
 11
-35.15138767516564
 21
15.30806953306683
 31
0.0
  0
LINE
  5
1C5
102
{ACAD_REACTORS
330
1C6
102
}
330
172
100
AcDbEntity
  8
0
100
AcDbLine
 10
-33.7824906751656
 20
10.44087653306682
 30
0.0
 11
-35.15138767516564
 21
10.44087653306682
 31
0.0
  0
HATCH
  5
1C6
330
172
100
AcDbEntity
  8
Schraffur (ISO)
100
AcDbHatch
 10
0.0
 20
0.0
 30
0.0
210
0.0
220
0.0
230
1.0
  2
SOLID
 70
     1
 71
     1
 91
        1
 92
        1
 93
        8
 72
     1
 10
-33.7824906751656
 20
15.30806953306683
 11
-33.7824906751656
 21
10.44087653306682
 72
     1
 10
-33.7824906751656
 20
10.44087653306682
 11
-35.15138767516564
 21
10.44087653306682
 72
     1
 10
-35.15138767516564
 20
10.44087653306682
 11
-35.15138767516564
 21
15.30806953306683
 72
     1
 10
-35.15138767516564
 20
15.30806953306683
 11
-36.36818667516561
 21
15.30806953306683
 72
     1
 10
-36.36818667516561
 20
15.30806953306683
 11
-36.36818667516561
 21
16.44881753306684
 72
     1
 10
-36.36818667516561
 20
16.44881753306684
 11
-32.52410267516563
 21
16.44881753306684
 72
     1
 10
-32.52410267516563
 20
16.44881753306684
 11
-32.52410267516563
 21
15.30806953306683
 72
     1
 10
-32.52410267516563
 20
15.30806953306683
 11
-33.7824906751656
 21
15.30806953306683
 97
        8
330
1BE
330
1C5
330
1C4
330
1C3
330
1C2
330
1C1
330
1C0
330
1BF
 75
     0
 76
     1
 98
        1
 10
0.0
 20
0.0
450
        0
451
        0
460
0.0
461
0.0
452
        0
462
0.0
453
        0
470

  0
LINE
  5
1C7
102
{ACAD_REACTORS
330
1D3
102
}
330
172
100
AcDbEntity
  8
0
100
AcDbLine
 10
-30.66444567516566
 20
11.58162453306683
 30
0.0
 11
-28.55049667516564
 21
11.58162453306683
 31
0.0
  0
LINE
  5
1C8
102
{ACAD_REACTORS
330
1D3
102
}
330
172
100
AcDbEntity
  8
0
100
AcDbLine
 10
-30.66444567516566
 20
12.95052253306684
 30
0.0
 11
-30.66444567516566
 21
11.58162453306683
 31
0.0
  0
LINE
  5
1C9
102
{ACAD_REACTORS
330
1D3
102
}
330
172
100
AcDbEntity
  8
0
100
AcDbLine
 10
-28.76438667516563
 20
12.95052253306684
 30
0.0
 11
-30.66444567516566
 21
12.95052253306684
 31
0.0
  0
LINE
  5
1CA
102
{ACAD_REACTORS
330
1D3
102
}
330
172
100
AcDbEntity
  8
0
100
AcDbLine
 10
-28.76438667516563
 20
14.09127053306683
 30
0.0
 11
-28.76438667516563
 21
12.95052253306684
 31
0.0
  0
LINE
  5
1CB
102
{ACAD_REACTORS
330
1D3
102
}
330
172
100
AcDbEntity
  8
0
100
AcDbLine
 10
-30.66444567516566
 20
14.09127053306683
 30
0.0
 11
-28.76438667516563
 21
14.09127053306683
 31
0.0
  0
LINE
  5
1CC
102
{ACAD_REACTORS
330
1D3
102
}
330
172
100
AcDbEntity
  8
0
100
AcDbLine
 10
-30.66444567516566
 20
15.30806953306683
 30
0.0
 11
-30.66444567516566
 21
14.09127053306683
 31
0.0
  0
LINE
  5
1CD
102
{ACAD_REACTORS
330
1D3
102
}
330
172
100
AcDbEntity
  8
0
100
AcDbLine
 10
-28.6408056751657
 20
15.30806953306683
 30
0.0
 11
-30.66444567516566
 21
15.30806953306683
 31
0.0
  0
LINE
  5
1CE
102
{ACAD_REACTORS
330
1D3
102
}
330
172
100
AcDbEntity
  8
0
100
AcDbLine
 10
-28.6408056751657
 20
16.44881753306684
 30
0.0
 11
-28.6408056751657
 21
15.30806953306683
 31
0.0
  0
LINE
  5
1CF
102
{ACAD_REACTORS
330
1D3
102
}
330
172
100
AcDbEntity
  8
0
100
AcDbLine
 10
-32.03334267516563
 20
16.44881753306684
 30
0.0
 11
-28.6408056751657
 21
16.44881753306684
 31
0.0
  0
LINE
  5
1D0
102
{ACAD_REACTORS
330
1D3
102
}
330
172
100
AcDbEntity
  8
0
100
AcDbLine
 10
-32.03334267516563
 20
10.44087653306682
 30
0.0
 11
-32.03334267516563
 21
16.44881753306684
 31
0.0
  0
LINE
  5
1D1
102
{ACAD_REACTORS
330
1D3
102
}
330
172
100
AcDbEntity
  8
0
100
AcDbLine
 10
-28.55049667516564
 20
10.44087653306682
 30
0.0
 11
-32.03334267516563
 21
10.44087653306682
 31
0.0
  0
LINE
  5
1D2
102
{ACAD_REACTORS
330
1D3
102
}
330
172
100
AcDbEntity
  8
0
100
AcDbLine
 10
-28.55049667516564
 20
11.58162453306683
 30
0.0
 11
-28.55049667516564
 21
10.44087653306682
 31
0.0
  0
HATCH
  5
1D3
330
172
100
AcDbEntity
  8
Schraffur (ISO)
100
AcDbHatch
 10
0.0
 20
0.0
 30
0.0
210
0.0
220
0.0
230
1.0
  2
SOLID
 70
     1
 71
     1
 91
        1
 92
        1
 93
       12
 72
     1
 10
-30.66444567516566
 20
11.58162453306683
 11
-28.55049667516564
 21
11.58162453306683
 72
     1
 10
-28.55049667516564
 20
11.58162453306683
 11
-28.55049667516564
 21
10.44087653306682
 72
     1
 10
-28.55049667516564
 20
10.44087653306682
 11
-32.03334267516563
 21
10.44087653306682
 72
     1
 10
-32.03334267516563
 20
10.44087653306682
 11
-32.03334267516563
 21
16.44881753306684
 72
     1
 10
-32.03334267516563
 20
16.44881753306684
 11
-28.6408056751657
 21
16.44881753306684
 72
     1
 10
-28.6408056751657
 20
16.44881753306684
 11
-28.6408056751657
 21
15.30806953306683
 72
     1
 10
-28.6408056751657
 20
15.30806953306683
 11
-30.66444567516566
 21
15.30806953306683
 72
     1
 10
-30.66444567516566
 20
15.30806953306683
 11
-30.66444567516566
 21
14.09127053306683
 72
     1
 10
-30.66444567516566
 20
14.09127053306683
 11
-28.76438667516563
 21
14.09127053306683
 72
     1
 10
-28.76438667516563
 20
14.09127053306683
 11
-28.76438667516563
 21
12.95052253306684
 72
     1
 10
-28.76438667516563
 20
12.95052253306684
 11
-30.66444567516566
 21
12.95052253306684
 72
     1
 10
-30.66444567516566
 20
12.95052253306684
 11
-30.66444567516566
 21
11.58162453306683
 97
       12
330
1C7
330
1D2
330
1D1
330
1D0
330
1CF
330
1CE
330
1CD
330
1CC
330
1CB
330
1CA
330
1C9
330
1C8
 75
     0
 76
     1
 98
        1
 10
0.0
 20
0.0
450
        0
451
        0
460
0.0
461
0.0
452
        0
462
0.0
453
        0
470

  0
LINE
  5
1D4
102
{ACAD_REACTORS
330
1E1
102
}
330
172
100
AcDbEntity
  8
0
100
AcDbLine
 10
-25.43246658829611
 20
16.4546514228036
 30
0.0
 11
-23.90435631161623
 21
16.46180057898531
 31
0.0
  0
LINE
  5
1D5
102
{ACAD_REACTORS
330
1E1
102
}
330
172
100
AcDbEntity
  8
0
100
AcDbLine
 10
-26.01549057645176
 20
14.58511635645683
 30
0.0
 11
-25.43246658829611
 21
16.4546514228036
 31
0.0
  0
LINE
  5
1D6
102
{ACAD_REACTORS
330
1E1
102
}
330
172
100
AcDbEntity
  8
0
100
AcDbLine
 10
-26.03093740740494
 20
14.58504408954738
 30
0.0
 11
-26.01549057645176
 21
14.58511635645683
 31
0.0
  0
LINE
  5
1D7
102
{ACAD_REACTORS
330
1E1
102
}
330
172
100
AcDbEntity
  8
0
100
AcDbLine
 10
-26.64612930682606
 20
16.44881753306684
 30
0.0
 11
-26.03093740740494
 21
14.58504408954738
 31
0.0
  0
LINE
  5
1D8
102
{ACAD_REACTORS
330
1E1
102
}
330
172
100
AcDbEntity
  8
0
100
AcDbLine
 10
-28.16787067516568
 20
16.44881753306684
 30
0.0
 11
-26.64612930682606
 21
16.44881753306684
 31
0.0
  0
LINE
  5
1D9
102
{ACAD_REACTORS
330
1E1
102
}
330
172
100
AcDbEntity
  8
0
100
AcDbLine
 10
-26.87026967516569
 20
13.49475453306683
 30
0.0
 11
-28.16787067516568
 21
16.44881753306684
 31
0.0
  0
LINE
  5
1DA
102
{ACAD_REACTORS
330
1E1
102
}
330
172
100
AcDbEntity
  8
0
100
AcDbLine
 10
-28.30689867516558
 20
10.44087653306682
 30
0.0
 11
-26.87026967516569
 21
13.49475453306683
 31
0.0
  0
LINE
  5
1DB
102
{ACAD_REACTORS
330
1E1
102
}
330
172
100
AcDbEntity
  8
0
100
AcDbLine
 10
-26.78946667516559
 20
10.44087653306682
 30
0.0
 11
-28.30689867516558
 21
10.44087653306682
 31
0.0
  0
LINE
  5
1DC
102
{ACAD_REACTORS
330
1E1
102
}
330
172
100
AcDbEntity
  8
0
100
AcDbLine
 10
-26.0800636751657
 20
12.44669253306682
 30
0.0
 11
-26.78946667516559
 21
10.44087653306682
 31
0.0
  0
LINE
  5
1DD
102
{ACAD_REACTORS
330
1E1
102
}
330
172
100
AcDbEntity
  8
0
100
AcDbLine
 10
-25.52255357088104
 20
10.44087653306682
 30
0.0
 11
-26.0800636751657
 21
12.44669253306682
 31
0.0
  0
LINE
  5
1DE
102
{ACAD_REACTORS
330
1E1
102
}
330
172
100
AcDbEntity
  8
0
100
AcDbLine
 10
-23.91733373362687
 20
10.44087653306682
 30
0.0
 11
-25.52255357088104
 21
10.44087653306682
 31
0.0
  0
LINE
  5
1DF
102
{ACAD_REACTORS
330
1E1
102
}
330
172
100
AcDbEntity
  8
0
100
AcDbLine
 10
-25.16745525516015
 20
13.49429112836466
 30
0.0
 11
-23.91733373362687
 21
10.44087653306682
 31
0.0
  0
LINE
  5
1E0
102
{ACAD_REACTORS
330
1E1
102
}
330
172
100
AcDbEntity
  8
0
100
AcDbLine
 10
-23.90435631161623
 20
16.46180057898531
 30
0.0
 11
-25.16745525516015
 21
13.49429112836466
 31
0.0
  0
HATCH
  5
1E1
330
172
100
AcDbEntity
  8
Schraffur (ISO)
100
AcDbHatch
 10
0.0
 20
0.0
 30
0.0
210
0.0
220
0.0
230
1.0
  2
SOLID
 70
     1
 71
     1
 91
        1
 92
        1
 93
       13
 72
     1
 10
-25.43246658829611
 20
16.4546514228036
 11
-23.90435631161623
 21
16.46180057898531
 72
     1
 10
-23.90435631161623
 20
16.46180057898531
 11
-25.16745525516015
 21
13.49429112836467
 72
     1
 10
-25.16745525516015
 20
13.49429112836466
 11
-23.91733373362687
 21
10.44087653306682
 72
     1
 10
-23.91733373362687
 20
10.44087653306682
 11
-25.52255357088104
 21
10.44087653306682
 72
     1
 10
-25.52255357088104
 20
10.44087653306682
 11
-26.0800636751657
 21
12.44669253306682
 72
     1
 10
-26.0800636751657
 20
12.44669253306682
 11
-26.78946667516559
 21
10.44087653306682
 72
     1
 10
-26.78946667516559
 20
10.44087653306682
 11
-28.30689867516558
 21
10.44087653306682
 72
     1
 10
-28.30689867516558
 20
10.44087653306682
 11
-26.87026967516569
 21
13.49475453306683
 72
     1
 10
-26.87026967516569
 20
13.49475453306683
 11
-28.16787067516568
 21
16.44881753306684
 72
     1
 10
-28.16787067516568
 20
16.44881753306684
 11
-26.64612930682606
 21
16.44881753306684
 72
     1
 10
-26.64612930682606
 20
16.44881753306684
 11
-26.03093740740494
 21
14.58504408954738
 72
     1
 10
-26.03093740740494
 20
14.58504408954738
 11
-26.01549057645176
 21
14.58511635645683
 72
     1
 10
-26.01549057645176
 20
14.58511635645683
 11
-25.43246658829611
 21
16.4546514228036
 97
       13
330
1D4
330
1E0
330
1DF
330
1DE
330
1DD
330
1DC
330
1DB
330
1DA
330
1D9
330
1D8
330
1D7
330
1D6
330
1D5
 75
     0
 76
     1
 98
        1
 10
0.0
 20
0.0
450
        0
451
        0
460
0.0
461
0.0
452
        0
462
0.0
453
        0
470

  0
LINE
  5
1E2
330
172
100
AcDbEntity
  8
Skizziergeometrie (ISO)
100
AcDbLine
 10
-66.74197817516563
 20
0.2208965330668366
 30
0.0
 11
-53.44197817516562
 21
0.2208965330668366
 31
0.0
  0
LINE
  5
1E3
330
172
100
AcDbEntity
  8
Skizziergeometrie (ISO)
100
AcDbLine
 10
-53.44197817516562
 20
0.2208965330668366
 30
0.0
 11
-53.44197817516562
 21
13.52089653306683
 31
0.0
  0
LINE
  5
1E4
330
172
100
AcDbEntity
  8
Skizziergeometrie (ISO)
100
AcDbLine
 10
-53.44197817516562
 20
13.52089653306683
 30
0.0
 11
-66.74197817516563
 21
13.52089653306683
 31
0.0
  0
LINE
  5
1E5
330
172
100
AcDbEntity
  8
Skizziergeometrie (ISO)
100
AcDbLine
 10
-66.74197817516563
 20
13.52089653306683
 30
0.0
 11
-66.74197817516563
 21
0.2208965330668366
 31
0.0
  0
LINE
  5
1E6
330
172
100
AcDbEntity
  8
Skizziergeometrie (ISO)
100
AcDbLine
 10
-74.30834701753944
 20
20.17089653306684
 30
0.0
 11
-61.00834701753945
 21
20.17089653306684
 31
0.0
  0
LINE
  5
1E7
330
172
100
AcDbEntity
  8
Skizziergeometrie (ISO)
100
AcDbLine
 10
-61.00834701753945
 20
20.17089653306684
 30
0.0
 11
-61.00834701753945
 21
6.870896533066837
 31
0.0
  0
LINE
  5
1E8
330
172
100
AcDbEntity
  8
Skizziergeometrie (ISO)
100
AcDbLine
 10
-61.00834701753945
 20
6.870896533066837
 30
0.0
 11
-74.30834701753944
 21
6.870896533066837
 31
0.0
  0
LINE
  5
1E9
330
172
100
AcDbEntity
  8
Skizziergeometrie (ISO)
100
AcDbLine
 10
-74.30834701753944
 20
6.870896533066837
 30
0.0
 11
-74.30834701753944
 21
20.17089653306684
 31
0.0
  0
LINE
  5
1EA
330
172
100
AcDbEntity
  8
Skizziergeometrie (ISO)
100
AcDbLine
 10
-49.79098967516563
 20
25.34881753306685
 30
0.0
 11
-36.49098967516564
 21
25.34881753306685
 31
0.0
  0
LINE
  5
1EB
330
172
100
AcDbEntity
  8
Skizziergeometrie (ISO)
100
AcDbLine
 10
-36.49098967516564
 20
25.34881753306685
 30
0.0
 11
-36.49098967516564
 21
12.04881753306685
 31
0.0
  0
LINE
  5
1EC
330
172
100
AcDbEntity
  8
Skizziergeometrie (ISO)
100
AcDbLine
 10
-36.49098967516564
 20
12.04881753306685
 30
0.0
 11
-49.79098967516563
 21
12.04881753306685
 31
0.0
  0
LINE
  5
1ED
330
172
100
AcDbEntity
  8
Skizziergeometrie (ISO)
100
AcDbLine
 10
-49.79098967516563
 20
12.04881753306685
 30
0.0
 11
-49.79098967516563
 21
25.34881753306685
 31
0.0
  0
MTEXT
  5
1EE
330
172
100
AcDbEntity
  8
Titel (ISO)
100
AcDbMText
 10
-23.23075129610368
 20
16.30481426074307
 30
0.0
 40
2.5
 41
0.0
 46
0.0
 71
     4
 72
     1
  1
\fAIGDT|b0|i0;\H2.5000;\}
  7
Notiztext (DIN)
 73
     1
 44
1.0
  0
ENDBLK
  5
174
330
172
100
AcDbEntity
  8
0
100
AcDbBlockEnd
  0
BLOCK
  5
1F0
330
1EF
100
AcDbEntity
  8
0
100
AcDbBlockBegin
  2
P gross
 70
     0
 10
0.0
 20
0.0
 30
0.0
  3
P gross
  1

  0
LINE
  5
1F2
102
{ACAD_REACTORS
330
200
102
}
330
1EF
100
AcDbEntity
  8
0
100
AcDbLine
 10
8.769225522167296
 20
4.689310313762291
 30
0.0
 11
7.981577449080567
 21
4.689310313762327
 31
0.0
  0
LINE
  5
1F3
102
{ACAD_REACTORS
330
200
102
}
330
1EF
100
AcDbEntity
  8
0
100
AcDbLine
 10
7.981577449080567
 20
4.689310313762327
 30
0.0
 11
7.981577449080567
 21
0.7845927762325644
 31
0.0
  0
LINE
  5
1F4
102
{ACAD_REACTORS
330
200
102
}
330
1EF
100
AcDbEntity
  8
0
100
AcDbLine
 10
7.981577449080567
 20
0.7845927762325644
 30
0.0
 11
8.769225522167296
 21
0.7845927762325644
 31
0.0
  0
ARC
  5
1F5
102
{ACAD_REACTORS
330
200
102
}
330
1EF
100
AcDbEntity
  8
0
100
AcDbCircle
 10
8.769225522167296
 20
2.284592776232585
 30
0.0
 40
1.5
100
AcDbArc
 50
270.0
 51
0.0
  0
LINE
  5
1F6
102
{ACAD_REACTORS
330
200
102
}
330
1EF
100
AcDbEntity
  8
0
100
AcDbLine
 10
10.26922552216724
 20
2.284592776232585
 30
0.0
 11
10.26922552216728
 21
3.189310313762341
 31
0.0
  0
ARC
  5
1F7
102
{ACAD_REACTORS
330
200
102
}
330
1EF
100
AcDbEntity
  8
0
100
AcDbCircle
 10
8.769225522167296
 20
3.189310313762341
 30
0.0
 40
1.5
100
AcDbArc
 50
0.0
 51
90.0
  0
LINE
  5
1F8
102
{ACAD_REACTORS
330
200
102
}
330
1EF
100
AcDbEntity
  8
0
100
AcDbLine
 10
4.481577449080553
 20
7.033965470643472
 30
0.0
 11
4.481577449080553
 21
-7.033965470643472
 31
0.0
  0
LINE
  5
1F9
102
{ACAD_REACTORS
330
200
102
}
330
1EF
100
AcDbEntity
  8
0
100
AcDbLine
 10
9.557661927330194
 20
7.033965470643472
 30
0.0
 11
4.481577449080553
 21
7.033965470643472
 31
0.0
  0
ARC
  5
1FA
102
{ACAD_REACTORS
330
200
102
}
330
1EF
100
AcDbEntity
  8
0
100
AcDbCircle
 10
9.557661927330194
 20
3.033965470643487
 30
0.0
 40
4.0
100
AcDbArc
 50
0.0
 51
90.0
  0
LINE
  5
1FB
102
{ACAD_REACTORS
330
200
102
}
330
1EF
100
AcDbEntity
  8
0
100
AcDbLine
 10
13.55766192733018
 20
2.439937619351439
 30
0.0
 11
13.55766192733018
 21
3.033965470643487
 31
0.0
  0
ARC
  5
1FC
102
{ACAD_REACTORS
330
200
102
}
330
1EF
100
AcDbEntity
  8
0
100
AcDbCircle
 10
9.557661927330194
 20
2.439937619351439
 30
0.0
 40
4.0
100
AcDbArc
 50
270.0
 51
0.0
  0
LINE
  5
1FD
102
{ACAD_REACTORS
330
200
102
}
330
1EF
100
AcDbEntity
  8
0
100
AcDbLine
 10
7.981577449080603
 20
-1.560062380648581
 30
0.0
 11
9.557661927330194
 21
-1.560062380648581
 31
0.0
  0
LINE
  5
1FE
102
{ACAD_REACTORS
330
200
102
}
330
1EF
100
AcDbEntity
  8
0
100
AcDbLine
 10
7.981577449080567
 20
-7.033965470643508
 30
0.0
 11
7.981577449080603
 21
-1.560062380648581
 31
0.0
  0
LINE
  5
1FF
102
{ACAD_REACTORS
330
200
102
}
330
1EF
100
AcDbEntity
  8
0
100
AcDbLine
 10
4.481577449080553
 20
-7.033965470643472
 30
0.0
 11
7.981577449080567
 21
-7.033965470643508
 31
0.0
  0
HATCH
  5
200
330
1EF
100
AcDbEntity
  8
Schraffur (ISO)
100
AcDbHatch
 10
0.0
 20
0.0
 30
0.0
210
0.0
220
0.0
230
1.0
  2
SOLID
 70
     1
 71
     1
 91
        2
 92
        0
 93
        6
 72
     1
 10
8.769225522167296
 20
4.689310313762291
 11
7.981577449080567
 21
4.689310313762327
 72
     1
 10
7.981577449080567
 20
4.689310313762327
 11
7.981577449080567
 21
0.7845927762325644
 72
     1
 10
7.981577449080567
 20
0.7845927762325644
 11
8.769225522167296
 21
0.7845927762325644
 72
     2
 10
8.769225522167296
 20
2.284592776232585
 40
1.5
 50
270.0
 51
360.0
 73
     1
 72
     1
 10
10.26922552216724
 20
2.284592776232585
 11
10.26922552216728
 21
3.189310313762341
 72
     2
 10
8.769225522167296
 20
3.189310313762341
 40
1.5
 50
0.0
 51
90.0
 73
     1
 97
        6
330
1F2
330
1F3
330
1F4
330
1F5
330
1F6
330
1F7
 92
        1
 93
        8
 72
     1
 10
4.481577449080553
 20
7.033965470643472
 11
4.481577449080553
 21
-7.033965470643472
 72
     1
 10
4.481577449080553
 20
-7.033965470643472
 11
7.981577449080567
 21
-7.033965470643508
 72
     1
 10
7.981577449080567
 20
-7.033965470643508
 11
7.981577449080603
 21
-1.560062380648581
 72
     1
 10
7.981577449080603
 20
-1.560062380648581
 11
9.557661927330194
 21
-1.560062380648581
 72
     2
 10
9.557661927330194
 20
2.439937619351439
 40
4.0
 50
270.0
 51
360.0
 73
     1
 72
     1
 10
13.55766192733018
 20
2.439937619351439
 11
13.55766192733018
 21
3.033965470643487
 72
     2
 10
9.557661927330194
 20
3.033965470643487
 40
4.0
 50
0.0
 51
90.0
 73
     1
 72
     1
 10
9.557661927330194
 20
7.033965470643472
 11
4.481577449080553
 21
7.033965470643472
 97
        8
330
1F8
330
1FF
330
1FE
330
1FD
330
1FC
330
1FB
330
1FA
330
1F9
 75
     0
 76
     1
 98
        1
 10
0.0
 20
0.0
450
        0
451
        0
460
0.0
461
0.0
452
        0
462
0.0
453
        0
470

  0
LINE
  5
201
330
1EF
100
AcDbEntity
  8
Skizziergeometrie (ISO)
100
AcDbLine
 10
-13.99999999999998
 20
14.00746616799352
 30
0.0
 11
14.00000000000002
 21
14.00746616799352
 31
0.0
  0
LINE
  5
202
330
1EF
100
AcDbEntity
  8
Skizziergeometrie (ISO)
100
AcDbLine
 10
14.00000000000002
 20
14.00746616799352
 30
0.0
 11
14.00000000000002
 21
-14.00746616799352
 31
0.0
  0
LINE
  5
203
330
1EF
100
AcDbEntity
  8
Skizziergeometrie (ISO)
100
AcDbLine
 10
14.00000000000002
 20
-14.00746616799352
 30
0.0
 11
-13.99999999999998
 21
-14.00746616799352
 31
0.0
  0
LINE
  5
204
330
1EF
100
AcDbEntity
  8
Skizziergeometrie (ISO)
100
AcDbLine
 10
-13.99999999999998
 20
-14.00746616799352
 30
0.0
 11
-13.99999999999998
 21
14.00746616799352
 31
0.0
  0
LINE
  5
205
330
1EF
100
AcDbEntity
  8
Skizziergeometrie (ISO)
100
AcDbLine
 10
4.481577449080553
 20
7.033965470643472
 30
0.0
 11
4.481577449080553
 21
-7.033965470643472
 31
0.0
  0
LINE
  5
206
330
1EF
100
AcDbEntity
  8
Skizziergeometrie (ISO)
100
AcDbLine
 10
4.481577449080553
 20
-7.033965470643472
 30
0.0
 11
7.981577449080567
 21
-7.033965470643508
 31
0.0
  0
LINE
  5
207
330
1EF
100
AcDbEntity
  8
Skizziergeometrie (ISO)
100
AcDbLine
 10
7.981577449080567
 20
-7.033965470643508
 30
0.0
 11
7.981577449080603
 21
-1.560062380648581
 31
0.0
  0
LINE
  5
208
330
1EF
100
AcDbEntity
  8
Skizziergeometrie (ISO)
100
AcDbLine
 10
7.981577449080603
 20
-1.560062380648581
 30
0.0
 11
9.557661927330194
 21
-1.560062380648581
 31
0.0
  0
LINE
  5
209
330
1EF
100
AcDbEntity
  8
Skizziergeometrie (ISO)
100
AcDbLine
 10
9.557661927330194
 20
7.033965470643472
 30
0.0
 11
4.481577449080553
 21
7.033965470643472
 31
0.0
  0
ARC
  5
20A
330
1EF
100
AcDbEntity
  8
Skizziergeometrie (ISO)
100
AcDbCircle
 10
9.557661927330194
 20
2.439937619351439
 30
0.0
 40
4.0
100
AcDbArc
 50
270.0
 51
0.0
  0
LINE
  5
20B
330
1EF
100
AcDbEntity
  8
Skizziergeometrie (ISO)
100
AcDbLine
 10
13.55766192733018
 20
2.439937619351439
 30
0.0
 11
13.55766192733018
 21
3.033965470643487
 31
0.0
  0
ARC
  5
20C
330
1EF
100
AcDbEntity
  8
Skizziergeometrie (ISO)
100
AcDbCircle
 10
9.557661927330194
 20
3.033965470643487
 30
0.0
 40
4.0
100
AcDbArc
 50
0.0
 51
90.0
  0
LINE
  5
20D
330
1EF
100
AcDbEntity
  8
Skizziergeometrie (ISO)
100
AcDbLine
 10
7.981577449080567
 20
0.7845927762325644
 30
0.0
 11
7.981577449080567
 21
4.689310313762327
 31
0.0
  0
LINE
  5
20E
330
1EF
100
AcDbEntity
  8
Skizziergeometrie (ISO)
100
AcDbLine
 10
7.981577449080567
 20
4.689310313762327
 30
0.0
 11
8.769225522167296
 21
4.689310313762291
 31
0.0
  0
ARC
  5
20F
330
1EF
100
AcDbEntity
  8
Skizziergeometrie (ISO)
100
AcDbCircle
 10
8.769225522167296
 20
3.189310313762341
 30
0.0
 40
1.5
100
AcDbArc
 50
0.0
 51
90.0
  0
LINE
  5
210
330
1EF
100
AcDbEntity
  8
Skizziergeometrie (ISO)
100
AcDbLine
 10
10.26922552216728
 20
3.189310313762341
 30
0.0
 11
10.26922552216724
 21
2.284592776232585
 31
0.0
  0
ARC
  5
211
330
1EF
100
AcDbEntity
  8
Skizziergeometrie (ISO)
100
AcDbCircle
 10
8.769225522167296
 20
2.284592776232585
 30
0.0
 40
1.5
100
AcDbArc
 50
270.0
 51
0.0
  0
LINE
  5
212
330
1EF
100
AcDbEntity
  8
Skizziergeometrie (ISO)
100
AcDbLine
 10
8.769225522167296
 20
0.7845927762325644
 30
0.0
 11
7.981577449080567
 21
0.7845927762325644
 31
0.0
  0
ENDBLK
  5
1F1
330
1EF
100
AcDbEntity
  8
0
100
AcDbBlockEnd
  0
ENDSEC
  0
SECTION
  2
ENTITIES
  0
ARC
  5
213
330
75
100
AcDbEntity
  8
Sichtbar (ISO)
100
AcDbCircle
 10
322.7737889814869
 20
203.6236786061458
 30
0.0
 40
2.5
100
AcDbArc
 50
270.0
 51
90.0
  0
ARC
  5
214
330
75
100
AcDbEntity
  8
Sichtbar (ISO)
100
AcDbCircle
 10
288.7737889814868
 20
203.6236786061457
 30
0.0
 40
2.5
100
AcDbArc
 50
90.0
 51
270.0
  0
LINE
  5
215
330
75
100
AcDbEntity
  8
Sichtbar (ISO)
100
AcDbLine
 10
288.7737889814868
 20
201.1236786061457
 30
0.0
 11
322.7737889814869
 21
201.1236786061457
 31
0.0
  0
LINE
  5
216
330
75
100
AcDbEntity
  8
Sichtbar (ISO)
100
AcDbLine
 10
322.7737889814869
 20
206.1236786061457
 30
0.0
 11
288.7737889814868
 21
206.1236786061457
 31
0.0
  0
LINE
  5
217
330
75
100
AcDbEntity
  8
Sichtbar (ISO)
100
AcDbLine
 10
324.4321013766651
 20
206.1236786061454
 30
0.0
 11
322.7737889814869
 21
206.1236786061454
 31
0.0
  0
LINE
  5
218
330
75
100
AcDbEntity
  8
Sichtbar (ISO)
100
AcDbLine
 10
319.7737889814866
 20
186.1236786061454
 30
0.0
 11
343.7737889814866
 21
186.1236786061454
 31
0.0
  0
ARC
  5
219
330
75
100
AcDbEntity
  8
Sichtbar (ISO)
100
AcDbCircle
 10
331.7737889814866
 20
170.1236786061454
 30
0.0
 40
20.00000000000001
100
AcDbArc
 50
126.869897645844
 51
53.13010235415588
  0
LINE
  5
21A
330
75
100
AcDbEntity
  8
Sichtbar (ISO)
100
AcDbLine
 10
348.2737889814868
 20
538.623678606146
 30
0.0
 11
315.2737889814869
 21
538.623678606146
 31
0.0
  0
LINE
  5
21B
330
75
100
AcDbEntity
  8
Sichtbar (ISO)
100
AcDbLine
 10
315.7737889814868
 20
539.1236786061462
 30
0.0
 11
347.7737889814869
 21
539.1236786061462
 31
0.0
  0
LINE
  5
21C
330
75
100
AcDbEntity
  8
Sichtbar (ISO)
100
AcDbLine
 10
347.7737889814869
 20
539.1236786061462
 30
0.0
 11
348.2737889814869
 21
538.623678606146
 31
0.0
  0
LINE
  5
21D
330
75
100
AcDbEntity
  8
Sichtbar (ISO)
100
AcDbLine
 10
315.7737889814868
 20
539.1236786061462
 30
0.0
 11
315.2737889814869
 21
538.623678606146
 31
0.0
  0
POLYLINE
  5
21E
330
75
100
AcDbEntity
  8
Sichtbar (ISO)
100
AcDb2dPolyline
 66
     1
 10
0.0
 20
0.0
 30
0.0
 70
   128
  0
VERTEX
  5
21F
330
21E
100
AcDbEntity
  8
Sichtbar (ISO)
100
AcDbVertex
100
AcDb2dVertex
 10
325.7737890208003
 20
203.6236789876155
 30
0.0
  0
VERTEX
  5
220
330
21E
100
AcDbEntity
  8
Sichtbar (ISO)
100
AcDbVertex
100
AcDb2dVertex
 10
325.758191081309
 20
203.9240291768245
 30
0.0
  0
VERTEX
  5
222
330
21E
100
AcDbEntity
  8
Sichtbar (ISO)
100
AcDbVertex
100
AcDb2dVertex
 10
325.711536737704
 20
204.2274740391902
 30
0.0
  0
VERTEX
  5
223
330
21E
100
AcDbEntity
  8
Sichtbar (ISO)
100
AcDbVertex
100
AcDb2dVertex
 10
325.6340328181025
 20
204.5275142842464
 30
0.0
  0
VERTEX
  5
224
330
21E
100
AcDbEntity
  8
Sichtbar (ISO)
100
AcDbVertex
100
AcDb2dVertex
 10
325.5259046280619
 20
204.8176506215266
 30
0.0
  0
VERTEX
  5
225
330
21E
100
AcDbEntity
  8
Sichtbar (ISO)
100
AcDbVertex
100
AcDb2dVertex
 10
325.3890791857478
 20
205.092156236761
 30
0.0
  0
VERTEX
  5
226
330
21E
100
AcDbEntity
  8
Sichtbar (ISO)
100
AcDbVertex
100
AcDb2dVertex
 10
325.2286216938731
 20
205.3468349629573
 30
0.0
  0
VERTEX
  5
227
330
21E
100
AcDbEntity
  8
Sichtbar (ISO)
100
AcDbVertex
100
AcDb2dVertex
 10
325.0499323332545
 20
205.577676599615
 30
0.0
  0
VERTEX
  5
228
330
21E
100
AcDbEntity
  8
Sichtbar (ISO)
100
AcDbVertex
100
AcDb2dVertex
 10
324.8570201122996
 20
205.7822254353694
 30
0.0
  0
VERTEX
  5
229
330
21E
100
AcDbEntity
  8
Sichtbar (ISO)
100
AcDbVertex
100
AcDb2dVertex
 10
324.6460345709559
 20
205.9668424779109
 30
0.0
  0
VERTEX
  5
22A
330
21E
100
AcDbEntity
  8
Sichtbar (ISO)
100
AcDbVertex
100
AcDb2dVertex
 10
324.4191095555064
 20
206.1311653309993
 30
0.0
  0
VERTEX
  5
22B
330
21E
100
AcDbEntity
  8
Sichtbar (ISO)
100
AcDbVertex
100
AcDb2dVertex
 10
324.1797581637141
 20
206.2732818776301
 30
0.0
  0
VERTEX
  5
22C
330
21E
100
AcDbEntity
  8
Sichtbar (ISO)
100
AcDbVertex
100
AcDb2dVertex
 10
323.931494685435
 20
206.3912943059138
 30
0.0
  0
VERTEX
  5
22D
330
21E
100
AcDbEntity
  8
Sichtbar (ISO)
100
AcDbVertex
100
AcDb2dVertex
 10
323.6779752695796
 20
206.4838674718074
 30
0.0
  0
VERTEX
  5
22E
330
21E
100
AcDbEntity
  8
Sichtbar (ISO)
100
AcDbVertex
100
AcDb2dVertex
 10
323.4230634892222
 20
206.5518787556819
 30
0.0
  0
VERTEX
  5
22F
330
21E
100
AcDbEntity
  8
Sichtbar (ISO)
100
AcDbVertex
100
AcDb2dVertex
 10
323.1705350005862
 20
206.5967062169246
 30
0.0
  0
VERTEX
  5
230
330
21E
100
AcDbEntity
  8
Sichtbar (ISO)
100
AcDbVertex
100
AcDb2dVertex
 10
322.9241672480342
 20
206.6197422200374
 30
0.0
  0
VERTEX
  5
231
330
21E
100
AcDbEntity
  8
Sichtbar (ISO)
100
AcDbVertex
100
AcDb2dVertex
 10
322.6867238009211
 20
206.6223695927791
 30
0.0
  0
VERTEX
  5
232
330
21E
100
AcDbEntity
  8
Sichtbar (ISO)
100
AcDbVertex
100
AcDb2dVertex
 10
322.450590165877
 20
206.6058328801326
 30
0.0
  0
VERTEX
  5
233
330
21E
100
AcDbEntity
  8
Sichtbar (ISO)
100
AcDbVertex
100
AcDb2dVertex
 10
322.2149992311236
 20
206.5705230885677
 30
0.0
  0
VERTEX
  5
234
330
21E
100
AcDbEntity
  8
Sichtbar (ISO)
100
AcDbVertex
100
AcDb2dVertex
 10
321.9820094430682
 20
206.5167024785213
 30
0.0
  0
VERTEX
  5
235
330
21E
100
AcDbEntity
  8
Sichtbar (ISO)
100
AcDbVertex
100
AcDb2dVertex
 10
321.7536795461413
 20
206.4446523839168
 30
0.0
  0
VERTEX
  5
236
330
21E
100
AcDbEntity
  8
Sichtbar (ISO)
100
AcDbVertex
100
AcDb2dVertex
 10
321.5320676887271
 20
206.3546350651912
 30
0.0
  0
VERTEX
  5
237
330
21E
100
AcDbEntity
  8
Sichtbar (ISO)
100
AcDbVertex
100
AcDb2dVertex
 10
321.3190099919078
 20
206.247203653448
 30
0.0
  0
VERTEX
  5
238
330
21E
100
AcDbEntity
  8
Sichtbar (ISO)
100
AcDbVertex
100
AcDb2dVertex
 10
321.1157396757838
 20
206.1234930211238
 30
0.0
  0
SEQEND
  5
221
330
21E
100
AcDbEntity
  8
Sichtbar (ISO)
  0
POLYLINE
  5
239
330
75
100
AcDbEntity
  8
Sichtbar (ISO)
100
AcDb2dPolyline
 66
     1
 10
0.0
 20
0.0
 30
0.0
 70
   128
  0
VERTEX
  5
23A
330
239
100
AcDbEntity
  8
Sichtbar (ISO)
100
AcDbVertex
100
AcDb2dVertex
 10
321.1157396757838
 20
201.1238649541072
 30
0.0
  0
VERTEX
  5
23B
330
239
100
AcDbEntity
  8
Sichtbar (ISO)
100
AcDbVertex
100
AcDb2dVertex
 10
321.3190099919078
 20
201.000154321783
 30
0.0
  0
VERTEX
  5
23D
330
239
100
AcDbEntity
  8
Sichtbar (ISO)
100
AcDbVertex
100
AcDb2dVertex
 10
321.5320676887271
 20
200.8927229100398
 30
0.0
  0
VERTEX
  5
23E
330
239
100
AcDbEntity
  8
Sichtbar (ISO)
100
AcDbVertex
100
AcDb2dVertex
 10
321.7536795461413
 20
200.8027055913142
 30
0.0
  0
VERTEX
  5
23F
330
239
100
AcDbEntity
  8
Sichtbar (ISO)
100
AcDbVertex
100
AcDb2dVertex
 10
321.9820094430682
 20
200.7306507283382
 30
0.0
  0
VERTEX
  5
240
330
239
100
AcDbEntity
  8
Sichtbar (ISO)
100
AcDbVertex
100
AcDb2dVertex
 10
322.2149992311236
 20
200.6768348866633
 30
0.0
  0
VERTEX
  5
241
330
239
100
AcDbEntity
  8
Sichtbar (ISO)
100
AcDbVertex
100
AcDb2dVertex
 10
322.450590165877
 20
200.6415250950984
 30
0.0
  0
VERTEX
  5
242
330
239
100
AcDbEntity
  8
Sichtbar (ISO)
100
AcDbVertex
100
AcDb2dVertex
 10
322.6867238009211
 20
200.6249836140804
 30
0.0
  0
VERTEX
  5
243
330
239
100
AcDbEntity
  8
Sichtbar (ISO)
100
AcDbVertex
100
AcDb2dVertex
 10
322.9241672480342
 20
200.6276157551937
 30
0.0
  0
VERTEX
  5
244
330
239
100
AcDbEntity
  8
Sichtbar (ISO)
100
AcDbVertex
100
AcDb2dVertex
 10
323.1705350005862
 20
200.6506469899349
 30
0.0
  0
VERTEX
  5
245
330
239
100
AcDbEntity
  8
Sichtbar (ISO)
100
AcDbVertex
100
AcDb2dVertex
 10
323.4230634892222
 20
200.6954792195491
 30
0.0
  0
VERTEX
  5
246
330
239
100
AcDbEntity
  8
Sichtbar (ISO)
100
AcDbVertex
100
AcDb2dVertex
 10
323.6779752695796
 20
200.7634905034236
 30
0.0
  0
VERTEX
  5
247
330
239
100
AcDbEntity
  8
Sichtbar (ISO)
100
AcDbVertex
100
AcDb2dVertex
 10
323.931494685435
 20
200.8560636693172
 30
0.0
  0
VERTEX
  5
248
330
239
100
AcDbEntity
  8
Sichtbar (ISO)
100
AcDbVertex
100
AcDb2dVertex
 10
324.1797581637141
 20
200.9740760976009
 30
0.0
  0
VERTEX
  5
249
330
239
100
AcDbEntity
  8
Sichtbar (ISO)
100
AcDbVertex
100
AcDb2dVertex
 10
324.4191095555064
 20
201.1161926442317
 30
0.0
  0
VERTEX
  5
24A
330
239
100
AcDbEntity
  8
Sichtbar (ISO)
100
AcDbVertex
100
AcDb2dVertex
 10
324.6460345709559
 20
201.2805107289485
 30
0.0
  0
VERTEX
  5
24B
330
239
100
AcDbEntity
  8
Sichtbar (ISO)
100
AcDbVertex
100
AcDb2dVertex
 10
324.8570201122996
 20
201.46512777149
 30
0.0
  0
VERTEX
  5
24C
330
239
100
AcDbEntity
  8
Sichtbar (ISO)
100
AcDbVertex
100
AcDb2dVertex
 10
325.0499323332545
 20
201.669681375616
 30
0.0
  0
VERTEX
  5
24D
330
239
100
AcDbEntity
  8
Sichtbar (ISO)
100
AcDbVertex
100
AcDb2dVertex
 10
325.2286216938731
 20
201.9005230122737
 30
0.0
  0
VERTEX
  5
24E
330
239
100
AcDbEntity
  8
Sichtbar (ISO)
100
AcDbVertex
100
AcDb2dVertex
 10
325.3890791857478
 20
202.15520173847
 30
0.0
  0
VERTEX
  5
24F
330
239
100
AcDbEntity
  8
Sichtbar (ISO)
100
AcDbVertex
100
AcDb2dVertex
 10
325.5259046280619
 20
202.4297073537044
 30
0.0
  0
VERTEX
  5
250
330
239
100
AcDbEntity
  8
Sichtbar (ISO)
100
AcDbVertex
100
AcDb2dVertex
 10
325.6340328181025
 20
202.7198436909846
 30
0.0
  0
VERTEX
  5
251
330
239
100
AcDbEntity
  8
Sichtbar (ISO)
100
AcDbVertex
100
AcDb2dVertex
 10
325.711536737704
 20
203.0198839360408
 30
0.0
  0
VERTEX
  5
252
330
239
100
AcDbEntity
  8
Sichtbar (ISO)
100
AcDbVertex
100
AcDb2dVertex
 10
325.758191081309
 20
203.3233287984065
 30
0.0
  0
VERTEX
  5
253
330
239
100
AcDbEntity
  8
Sichtbar (ISO)
100
AcDbVertex
100
AcDb2dVertex
 10
325.7737890208003
 20
203.6236789876155
 30
0.0
  0
SEQEND
  5
23C
330
239
100
AcDbEntity
  8
Sichtbar (ISO)
  0
LINE
  5
254
330
75
100
AcDbEntity
  8
Sichtbar (ISO)
100
AcDbLine
 10
317.0237889814868
 20
196.6236786061458
 30
0.0
 11
346.5237889814869
 21
196.6236786061458
 31
0.0
  0
LINE
  5
255
330
75
100
AcDbEntity
  8
Sichtbar (ISO)
100
AcDbLine
 10
317.0237889814869
 20
196.6236786061458
 30
0.0
 11
317.0237889814869
 21
201.1236786061457
 31
0.0
  0
LINE
  5
256
330
75
100
AcDbEntity
  8
Sichtbar (ISO)
100
AcDbLine
 10
317.0237889814869
 20
206.1236786061457
 30
0.0
 11
317.0237889814869
 21
215.5236786061458
 31
0.0
  0
LINE
  5
257
330
75
100
AcDbEntity
  8
Sichtbar (ISO)
100
AcDbLine
 10
346.5237889814869
 20
196.6236786061458
 30
0.0
 11
346.5237889814869
 21
215.5236786061458
 31
0.0
  0
LINE
  5
258
330
75
100
AcDbEntity
  8
Sichtbar (ISO)
100
AcDbLine
 10
283.2737889814869
 20
215.5236786061458
 30
0.0
 11
283.2737889814869
 21
265.0236786061458
 31
0.0
  0
LINE
  5
259
330
75
100
AcDbEntity
  8
Sichtbar (ISO)
100
AcDbLine
 10
318.2737889814868
 20
265.0236786061458
 30
0.0
 11
283.2737889814869
 21
265.0236786061458
 31
0.0
  0
LINE
  5
25A
330
75
100
AcDbEntity
  8
Sichtbar (ISO)
100
AcDbLine
 10
353.2737889814868
 20
265.0236786061458
 30
0.0
 11
318.2737889814868
 21
265.0236786061458
 31
0.0
  0
LINE
  5
25B
330
75
100
AcDbEntity
  8
Sichtbar (ISO)
100
AcDbLine
 10
353.2737889814868
 20
215.5236786061458
 30
0.0
 11
353.2737889814868
 21
265.0236786061458
 31
0.0
  0
LINE
  5
25C
330
75
100
AcDbEntity
  8
Sichtbar (ISO)
100
AcDbLine
 10
318.2737889814868
 20
215.5236786061458
 30
0.0
 11
283.2737889814869
 21
215.5236786061458
 31
0.0
  0
LINE
  5
25D
330
75
100
AcDbEntity
  8
Sichtbar (ISO)
100
AcDbLine
 10
318.2737889814868
 20
215.5236786061458
 30
0.0
 11
318.2737889814868
 21
265.0236786061458
 31
0.0
  0
LINE
  5
25E
330
75
100
AcDbEntity
  8
Sichtbar (ISO)
100
AcDbLine
 10
353.2737889814868
 20
215.5236786061458
 30
0.0
 11
318.2737889814868
 21
215.5236786061458
 31
0.0
  0
LINE
  5
25F
330
75
100
AcDbEntity
  8
Sichtbar schmal (ISO)
100
AcDbLine
 10
293.4687889814869
 20
266.2236786061458
 30
0.0
 11
353.0787889814869
 21
266.2236786061458
 31
0.0
  0
LINE
  5
260
330
75
100
AcDbEntity
  8
Sichtbar (ISO)
100
AcDbLine
 10
353.2737878287074
 20
265.0236788445643
 30
0.0
 11
353.2737878287074
 21
265.5679538899593
 31
0.0
  0
ARC
  5
261
330
75
100
AcDbEntity
  8
Sichtbar (ISO)
100
AcDbCircle
 10
292.2687889814869
 20
266.2236786061458
 30
0.0
 40
1.199999999999999
100
AcDbArc
 50
270.0
 51
0.0
  0
ARC
  5
262
330
75
100
AcDbEntity
  8
Sichtbar (ISO)
100
AcDbCircle
 10
354.2787889814869
 20
266.2236786061458
 30
0.0
 40
1.199999999999999
100
AcDbArc
 50
180.0
 51
213.1229402077421
  0
LINE
  5
263
330
75
100
AcDbEntity
  8
Sichtbar (ISO)
100
AcDbLine
 10
353.0787889814869
 20
290.9236786061458
 30
0.0
 11
293.4687889814869
 21
290.9236786061458
 31
0.0
  0
LINE
  5
264
330
75
100
AcDbEntity
  8
Sichtbar (ISO)
100
AcDbLine
 10
295.0687889814869
 20
292.5236786061458
 30
0.0
 11
351.4787889814869
 21
292.5236786061458
 31
0.0
  0
LINE
  5
265
330
75
100
AcDbEntity
  8
Sichtbar (ISO)
100
AcDbLine
 10
351.4787889814869
 20
292.5236786061458
 30
0.0
 11
353.0787889814869
 21
290.9236786061458
 31
0.0
  0
LINE
  5
266
330
75
100
AcDbEntity
  8
Sichtbar (ISO)
100
AcDbLine
 10
295.0687889814868
 20
292.5236786061458
 30
0.0
 11
293.4687889814869
 21
290.9236786061458
 31
0.0
  0
LINE
  5
267
330
75
100
AcDbEntity
  8
Sichtbar (ISO)
100
AcDbLine
 10
335.7737889814866
 20
196.6236786061458
 30
0.0
 11
335.7737889814866
 21
186.1236786061454
 31
0.0
  0
LINE
  5
268
330
75
100
AcDbEntity
  8
Sichtbar (ISO)
100
AcDbLine
 10
327.7737889814866
 20
196.6236786061458
 30
0.0
 11
327.7737889814866
 21
186.1236786061454
 31
0.0
  0
LINE
  5
269
330
75
100
AcDbEntity
  8
Sichtbar (ISO)
100
AcDbLine
 10
315.2737889814869
 20
292.5236786061458
 30
0.0
 11
315.2737889814869
 21
538.623678606146
 31
0.0
  0
LINE
  5
26A
330
75
100
AcDbEntity
  8
Sichtbar (ISO)
100
AcDbLine
 10
348.2737889814869
 20
292.5236786061458
 30
0.0
 11
348.2737889814869
 21
538.623678606146
 31
0.0
  0
LINE
  5
26B
330
75
100
AcDbEntity
  8
Sichtbar (ISO)
100
AcDbLine
 10
293.4687889814869
 20
266.2236786061458
 30
0.0
 11
293.4687889814869
 21
290.9236786061458
 31
0.0
  0
LINE
  5
26C
330
75
100
AcDbEntity
  8
Sichtbar (ISO)
100
AcDbLine
 10
353.0787889814869
 20
266.2236786061458
 30
0.0
 11
353.0787889814869
 21
290.9236786061458
 31
0.0
  0
LINE
  5
26D
330
75
100
AcDbEntity
  8
Sichtbar schmal (ISO)
100
AcDbLine
 10
335.0297889814866
 20
186.1236786061454
 30
0.0
 11
335.0297889814866
 21
196.6236786061458
 31
0.0
  0
LINE
  5
26E
330
75
100
AcDbEntity
  8
Sichtbar schmal (ISO)
100
AcDbLine
 10
328.5177889814867
 20
196.6236786061458
 30
0.0
 11
328.5177889814867
 21
186.1236786061454
 31
0.0
  0
LINE
  5
26F
330
75
100
AcDbEntity
  8
Sichtbar schmal (ISO)
100
AcDbLine
 10
294.9477889814868
 20
292.4026786061458
 30
0.0
 11
294.9477889814868
 21
268.5236786061458
 31
0.0
  0
LINE
  5
270
330
75
100
AcDbEntity
  8
Sichtbar schmal (ISO)
100
AcDbLine
 10
351.5997889814869
 20
268.5236786061458
 30
0.0
 11
351.5997889814869
 21
292.4026786061458
 31
0.0
  0
LINE
  5
271
330
75
100
AcDbEntity
  8
Sichtbar (ISO)
100
AcDbLine
 10
353.0787889814869
 20
268.5236786061458
 30
0.0
 11
293.4687889814869
 21
268.5236786061458
 31
0.0
  0
LINE
  5
272
330
75
100
AcDbEntity
  8
Sichtbar schmal (ISO)
100
AcDbLine
 10
75.10115896827852
 20
201.1236786061458
 30
0.0
 11
75.10115896827854
 21
206.1236786061458
 31
0.0
  0
LINE
  5
273
330
75
100
AcDbEntity
  8
Sichtbar (ISO)
100
AcDbLine
 10
158.1011589682785
 20
206.1236786061458
 30
0.0
 11
158.1011589682785
 21
201.1236786061458
 31
0.0
  0
ARC
  5
274
330
75
100
AcDbEntity
  8
Sichtbar (ISO)
100
AcDbCircle
 10
58.10115896827348
 20
203.6236786061457
 30
0.0
 40
2.5
100
AcDbArc
 50
90.0
 51
270.0
  0
LINE
  5
275
330
75
100
AcDbEntity
  8
Sichtbar (ISO)
100
AcDbLine
 10
58.10115896827348
 20
201.1236786061457
 30
0.0
 11
75.10115896827855
 21
201.1236786061457
 31
0.0
  0
LINE
  5
276
330
75
100
AcDbEntity
  8
Sichtbar (ISO)
100
AcDbLine
 10
75.10115896827855
 20
206.1236786061457
 30
0.0
 11
58.10115896827348
 21
206.1236786061457
 31
0.0
  0
LINE
  5
277
330
75
100
AcDbEntity
  8
Sichtbar (ISO)
100
AcDbLine
 10
158.1011589682785
 20
201.1236786061458
 30
0.0
 11
129.6481990090123
 21
201.1236786061458
 31
0.0
  0
LINE
  5
278
330
75
100
AcDbEntity
  8
Sichtbar (ISO)
100
AcDbLine
 10
100.1481990090123
 20
201.1236786061458
 30
0.0
 11
75.10115896827854
 21
201.1236786061458
 31
0.0
  0
LINE
  5
279
330
75
100
AcDbEntity
  8
Sichtbar (ISO)
100
AcDbLine
 10
158.1011589682785
 20
206.1236786061458
 30
0.0
 11
129.6481990090123
 21
206.1236786061458
 31
0.0
  0
LINE
  5
27A
330
75
100
AcDbEntity
  8
Sichtbar (ISO)
100
AcDbLine
 10
100.1481990090123
 20
206.1236786061458
 30
0.0
 11
75.10115896827854
 21
206.1236786061458
 31
0.0
  0
LINE
  5
27B
330
75
100
AcDbEntity
  8
Sichtbar (ISO)
100
AcDbLine
 10
102.8981990090149
 20
186.1236786061454
 30
0.0
 11
126.8981990090149
 21
186.1236786061454
 31
0.0
  0
ARC
  5
27C
330
75
100
AcDbEntity
  8
Sichtbar (ISO)
100
AcDbCircle
 10
114.8981990090149
 20
170.1236786061454
 30
0.0
 40
20.00000000000001
100
AcDbArc
 50
126.869897645844
 51
53.13010235415607
  0
LINE
  5
27D
330
75
100
AcDbEntity
  8
Sichtbar (ISO)
100
AcDbLine
 10
131.3981990090149
 20
538.623678606146
 30
0.0
 11
98.39819900901492
 21
538.623678606146
 31
0.0
  0
LINE
  5
27E
330
75
100
AcDbEntity
  8
Sichtbar (ISO)
100
AcDbLine
 10
98.89819900901493
 20
539.1236786061462
 30
0.0
 11
130.8981990090149
 21
539.1236786061462
 31
0.0
  0
LINE
  5
27F
330
75
100
AcDbEntity
  8
Sichtbar (ISO)
100
AcDbLine
 10
130.8981990090149
 20
539.1236786061462
 30
0.0
 11
131.3981990090149
 21
538.623678606146
 31
0.0
  0
LINE
  5
280
330
75
100
AcDbEntity
  8
Sichtbar (ISO)
100
AcDbLine
 10
98.89819900901493
 20
539.1236786061462
 30
0.0
 11
98.39819900901492
 21
538.623678606146
 31
0.0
  0
LINE
  5
281
330
75
100
AcDbEntity
  8
Sichtbar (ISO)
100
AcDbLine
 10
100.148199009015
 20
196.6236786061458
 30
0.0
 11
129.648199009015
 21
196.6236786061458
 31
0.0
  0
LINE
  5
282
330
75
100
AcDbEntity
  8
Sichtbar (ISO)
100
AcDbLine
 10
100.148199009015
 20
196.6236786061458
 30
0.0
 11
100.148199009015
 21
215.5236786061458
 31
0.0
  0
LINE
  5
283
330
75
100
AcDbEntity
  8
Sichtbar (ISO)
100
AcDbLine
 10
129.648199009015
 20
196.6236786061458
 30
0.0
 11
129.648199009015
 21
215.5236786061458
 31
0.0
  0
LINE
  5
284
330
75
100
AcDbEntity
  8
Sichtbar schmal (ISO)
100
AcDbLine
 10
85.09319900901246
 20
266.2236786061458
 30
0.0
 11
144.7031990090124
 21
266.2236786061458
 31
0.0
  0
POLYLINE
  5
285
330
75
100
AcDbEntity
  8
Sichtbar (ISO)
100
AcDb2dPolyline
 66
     1
 10
0.0
 20
0.0
 30
0.0
 70
   128
  0
VERTEX
  5
286
330
285
100
AcDbEntity
  8
Sichtbar (ISO)
100
AcDbVertex
100
AcDb2dVertex
 10
107.0681269636951
 20
265.0236788445643
 30
0.0
  0
VERTEX
  5
287
330
285
100
AcDbEntity
  8
Sichtbar (ISO)
100
AcDbVertex
100
AcDb2dVertex
 10
107.7065922489963
 20
265.0346723252468
 30
0.0
  0
VERTEX
  5
289
330
285
100
AcDbEntity
  8
Sichtbar (ISO)
100
AcDbVertex
100
AcDb2dVertex
 10
108.3750160208545
 20
265.0643757039241
 30
0.0
  0
VERTEX
  5
28A
330
285
100
AcDbEntity
  8
Sichtbar (ISO)
100
AcDbVertex
100
AcDb2dVertex
 10
109.0449465981326
 20
265.1078692132167
 30
0.0
  0
VERTEX
  5
28B
330
285
100
AcDbEntity
  8
Sichtbar (ISO)
100
AcDbVertex
100
AcDb2dVertex
 10
109.6879317036472
 20
265.1602354699306
 30
0.0
  0
VERTEX
  5
28C
330
285
100
AcDbEntity
  8
Sichtbar (ISO)
100
AcDbVertex
100
AcDb2dVertex
 10
110.3102366796337
 20
265.2192392998866
 30
0.0
  0
VERTEX
  5
28D
330
285
100
AcDbEntity
  8
Sichtbar (ISO)
100
AcDbVertex
100
AcDb2dVertex
 10
110.9553532472453
 20
265.2848532849483
 30
0.0
  0
VERTEX
  5
28E
330
285
100
AcDbEntity
  8
Sichtbar (ISO)
100
AcDbVertex
100
AcDb2dVertex
 10
111.6166307202182
 20
265.3526738339595
 30
0.0
  0
VERTEX
  5
28F
330
285
100
AcDbEntity
  8
Sichtbar (ISO)
100
AcDbVertex
100
AcDb2dVertex
 10
112.2864337435565
 20
265.4182186776332
 30
0.0
  0
VERTEX
  5
290
330
285
100
AcDbEntity
  8
Sichtbar (ISO)
100
AcDbVertex
100
AcDb2dVertex
 10
112.9571272602878
 20
265.4770019704036
 30
0.0
  0
VERTEX
  5
291
330
285
100
AcDbEntity
  8
Sichtbar (ISO)
100
AcDbVertex
100
AcDb2dVertex
 10
113.6210760644279
 20
265.5245414429836
 30
0.0
  0
VERTEX
  5
292
330
285
100
AcDbEntity
  8
Sichtbar (ISO)
100
AcDbVertex
100
AcDb2dVertex
 10
114.2706450244985
 20
265.5563536339931
 30
0.0
  0
VERTEX
  5
293
330
285
100
AcDbEntity
  8
Sichtbar (ISO)
100
AcDbVertex
100
AcDb2dVertex
 10
114.8981990090213
 20
265.5679538899593
 30
0.0
  0
VERTEX
  5
294
330
285
100
AcDbEntity
  8
Sichtbar (ISO)
100
AcDbVertex
100
AcDb2dVertex
 10
115.5257529935441
 20
265.5563536339931
 30
0.0
  0
VERTEX
  5
295
330
285
100
AcDbEntity
  8
Sichtbar (ISO)
100
AcDbVertex
100
AcDb2dVertex
 10
116.1753219536147
 20
265.5245414429836
 30
0.0
  0
VERTEX
  5
296
330
285
100
AcDbEntity
  8
Sichtbar (ISO)
100
AcDbVertex
100
AcDb2dVertex
 10
116.8392707577548
 20
265.4770019704036
 30
0.0
  0
VERTEX
  5
297
330
285
100
AcDbEntity
  8
Sichtbar (ISO)
100
AcDbVertex
100
AcDb2dVertex
 10
117.5099642744861
 20
265.4182186776332
 30
0.0
  0
VERTEX
  5
298
330
285
100
AcDbEntity
  8
Sichtbar (ISO)
100
AcDbVertex
100
AcDb2dVertex
 10
118.1797672978244
 20
265.3526738339595
 30
0.0
  0
VERTEX
  5
299
330
285
100
AcDbEntity
  8
Sichtbar (ISO)
100
AcDbVertex
100
AcDb2dVertex
 10
118.8410447707973
 20
265.2848532849483
 30
0.0
  0
VERTEX
  5
29A
330
285
100
AcDbEntity
  8
Sichtbar (ISO)
100
AcDbVertex
100
AcDb2dVertex
 10
119.486161338409
 20
265.2192392998866
 30
0.0
  0
VERTEX
  5
29B
330
285
100
AcDbEntity
  8
Sichtbar (ISO)
100
AcDbVertex
100
AcDb2dVertex
 10
120.1084663143955
 20
265.1602354699306
 30
0.0
  0
VERTEX
  5
29C
330
285
100
AcDbEntity
  8
Sichtbar (ISO)
100
AcDbVertex
100
AcDb2dVertex
 10
120.75145141991
 20
265.1078692132167
 30
0.0
  0
VERTEX
  5
29D
330
285
100
AcDbEntity
  8
Sichtbar (ISO)
100
AcDbVertex
100
AcDb2dVertex
 10
121.4213819971881
 20
265.0643757039241
 30
0.0
  0
VERTEX
  5
29E
330
285
100
AcDbEntity
  8
Sichtbar (ISO)
100
AcDbVertex
100
AcDb2dVertex
 10
122.0898057690464
 20
265.0346723252468
 30
0.0
  0
VERTEX
  5
29F
330
285
100
AcDbEntity
  8
Sichtbar (ISO)
100
AcDbVertex
100
AcDb2dVertex
 10
122.7282710543476
 20
265.0236788445643
 30
0.0
  0
SEQEND
  5
288
330
285
100
AcDbEntity
  8
Sichtbar (ISO)
  0
ARC
  5
2A0
330
75
100
AcDbEntity
  8
Sichtbar (ISO)
100
AcDbCircle
 10
83.89319900901245
 20
266.2236786061458
 30
0.0
 40
1.199999999999999
100
AcDbArc
 50
270.0
 51
0.0
  0
ARC
  5
2A1
330
75
100
AcDbEntity
  8
Sichtbar (ISO)
100
AcDbCircle
 10
145.9031990090124
 20
266.2236786061458
 30
0.0
 40
1.199999999999999
100
AcDbArc
 50
180.0
 51
270.0
  0
LINE
  5
2A2
330
75
100
AcDbEntity
  8
Sichtbar (ISO)
100
AcDbLine
 10
135.1054584306582
 20
265.0236786061458
 30
0.0
 11
122.7282708477723
 21
265.0236786061458
 31
0.0
  0
LINE
  5
2A3
330
75
100
AcDbEntity
  8
Sichtbar (ISO)
100
AcDbLine
 10
155.3127178522847
 20
265.0236786061458
 30
0.0
 11
135.1054584306582
 21
265.0236786061458
 31
0.0
  0
LINE
  5
2A4
330
75
100
AcDbEntity
  8
Sichtbar (ISO)
100
AcDbLine
 10
94.69093958738442
 20
265.0236786061458
 30
0.0
 11
74.48368016573716
 21
265.0236786061458
 31
0.0
  0
LINE
  5
2A5
330
75
100
AcDbEntity
  8
Sichtbar (ISO)
100
AcDbLine
 10
107.0681271702703
 20
265.0236786061458
 30
0.0
 11
94.69093958738442
 21
265.0236786061458
 31
0.0
  0
LINE
  5
2A6
330
75
100
AcDbEntity
  8
Sichtbar (ISO)
100
AcDbLine
 10
94.69093958738442
 20
215.5236786061458
 30
0.0
 11
94.69093958738442
 21
265.0236786061458
 31
0.0
  0
LINE
  5
2A7
330
75
100
AcDbEntity
  8
Sichtbar (ISO)
100
AcDbLine
 10
135.1054584306582
 20
215.5236786061458
 30
0.0
 11
94.69093958738442
 21
215.5236786061458
 31
0.0
  0
LINE
  5
2A8
330
75
100
AcDbEntity
  8
Sichtbar (ISO)
100
AcDbLine
 10
135.1054584306582
 20
215.5236786061458
 30
0.0
 11
135.1054584306582
 21
265.0236786061458
 31
0.0
  0
LINE
  5
2A9
330
75
100
AcDbEntity
  8
Sichtbar (ISO)
100
AcDbLine
 10
74.48368016573716
 20
215.5236786061458
 30
0.0
 11
74.48368016573716
 21
265.0236786061458
 31
0.0
  0
LINE
  5
2AA
330
75
100
AcDbEntity
  8
Sichtbar (ISO)
100
AcDbLine
 10
155.3127178522847
 20
215.5236786061458
 30
0.0
 11
155.3127178522847
 21
265.0236786061458
 31
0.0
  0
LINE
  5
2AB
330
75
100
AcDbEntity
  8
Sichtbar (ISO)
100
AcDbLine
 10
155.3127178522847
 20
215.5236786061458
 30
0.0
 11
135.1054584306582
 21
215.5236786061458
 31
0.0
  0
LINE
  5
2AC
330
75
100
AcDbEntity
  8
Sichtbar (ISO)
100
AcDbLine
 10
94.69093958738442
 20
215.5236786061458
 30
0.0
 11
74.48368016573716
 21
215.5236786061458
 31
0.0
  0
LINE
  5
2AD
330
75
100
AcDbEntity
  8
Sichtbar (ISO)
100
AcDbLine
 10
144.7031990090124
 20
290.9236786061458
 30
0.0
 11
85.09319900901246
 21
290.9236786061458
 31
0.0
  0
LINE
  5
2AE
330
75
100
AcDbEntity
  8
Sichtbar (ISO)
100
AcDbLine
 10
86.69319900901246
 20
292.5236786061458
 30
0.0
 11
143.1031990090124
 21
292.5236786061458
 31
0.0
  0
LINE
  5
2AF
330
75
100
AcDbEntity
  8
Sichtbar (ISO)
100
AcDbLine
 10
143.1031990090124
 20
292.5236786061458
 30
0.0
 11
144.7031990090124
 21
290.9236786061458
 31
0.0
  0
LINE
  5
2B0
330
75
100
AcDbEntity
  8
Sichtbar (ISO)
100
AcDbLine
 10
86.69319900901246
 20
292.5236786061458
 30
0.0
 11
85.09319900901246
 21
290.9236786061458
 31
0.0
  0
LINE
  5
2B1
330
75
100
AcDbEntity
  8
Sichtbar (ISO)
100
AcDbLine
 10
118.8981990090149
 20
196.6236786061458
 30
0.0
 11
118.8981990090149
 21
186.1236786061454
 31
0.0
  0
LINE
  5
2B2
330
75
100
AcDbEntity
  8
Sichtbar (ISO)
100
AcDbLine
 10
110.8981990090149
 20
196.6236786061458
 30
0.0
 11
110.8981990090149
 21
186.1236786061454
 31
0.0
  0
LINE
  5
2B3
330
75
100
AcDbEntity
  8
Sichtbar (ISO)
100
AcDbLine
 10
98.39819900901495
 20
292.5236786061458
 30
0.0
 11
98.39819900901495
 21
538.623678606146
 31
0.0
  0
LINE
  5
2B4
330
75
100
AcDbEntity
  8
Sichtbar (ISO)
100
AcDbLine
 10
131.3981990090149
 20
292.5236786061458
 30
0.0
 11
131.3981990090149
 21
538.623678606146
 31
0.0
  0
LINE
  5
2B5
330
75
100
AcDbEntity
  8
Sichtbar (ISO)
100
AcDbLine
 10
85.09319900901246
 20
266.2236786061458
 30
0.0
 11
85.09319900901246
 21
290.9236786061458
 31
0.0
  0
LINE
  5
2B6
330
75
100
AcDbEntity
  8
Sichtbar (ISO)
100
AcDbLine
 10
144.7031990090124
 20
266.2236786061458
 30
0.0
 11
144.7031990090124
 21
290.9236786061458
 31
0.0
  0
LINE
  5
2B7
330
75
100
AcDbEntity
  8
Sichtbar schmal (ISO)
100
AcDbLine
 10
118.1541990090149
 20
186.1236786061454
 30
0.0
 11
118.1541990090149
 21
196.6236786061458
 31
0.0
  0
LINE
  5
2B8
330
75
100
AcDbEntity
  8
Sichtbar schmal (ISO)
100
AcDbLine
 10
111.6421990090149
 20
196.6236786061458
 30
0.0
 11
111.6421990090149
 21
186.1236786061454
 31
0.0
  0
LINE
  5
2B9
330
75
100
AcDbEntity
  8
Sichtbar schmal (ISO)
100
AcDbLine
 10
86.57219900901246
 20
292.4026786061458
 30
0.0
 11
86.57219900901246
 21
268.5236786061458
 31
0.0
  0
LINE
  5
2BA
330
75
100
AcDbEntity
  8
Sichtbar schmal (ISO)
100
AcDbLine
 10
143.2241990090124
 20
268.5236786061458
 30
0.0
 11
143.2241990090124
 21
292.4026786061458
 31
0.0
  0
LINE
  5
2BB
330
75
100
AcDbEntity
  8
Sichtbar (ISO)
100
AcDbLine
 10
144.7031990090124
 20
268.5236786061458
 30
0.0
 11
85.09319900901246
 21
268.5236786061458
 31
0.0
  0
LINE
  5
2BC
330
75
100
AcDbEntity
  8
Sichtbar schmal (ISO)
100
AcDbLine
 10
325.2737889811675
 20
53.14801691320276
 30
0.0
 11
320.2737889811675
 21
53.14801691320276
 31
0.0
  0
LINE
  5
2BD
330
75
100
AcDbEntity
  8
Sichtbar (ISO)
100
AcDbLine
 10
320.2737889811674
 20
136.1480169132027
 30
0.0
 11
325.2737889811675
 21
136.1480169132027
 31
0.0
  0
ARC
  5
2BE
330
75
100
AcDbEntity
  8
Sichtbar (ISO)
100
AcDbCircle
 10
305.7737889811675
 20
53.14801691320275
 30
0.0
 40
19.5
100
AcDbArc
 50
132.9569818326884
 51
0.0
  0
ARC
  5
2BF
330
75
100
AcDbEntity
  8
Sichtbar (ISO)
100
AcDbCircle
 10
305.7737889811675
 20
53.14801691320275
 30
0.0
 40
14.5
100
AcDbArc
 50
126.7867152725899
 51
0.0
  0
LINE
  5
2C0
330
75
100
AcDbEntity
  8
Sichtbar (ISO)
100
AcDbLine
 10
325.2737889811675
 20
136.1480169132027
 30
0.0
 11
325.2737889811675
 21
129.3181239128829
 31
0.0
  0
LINE
  5
2C1
330
75
100
AcDbEntity
  8
Sichtbar (ISO)
100
AcDbLine
 10
325.2737889811675
 20
56.57198999499015
 30
0.0
 11
325.2737889811675
 21
53.14801691320276
 31
0.0
  0
LINE
  5
2C2
330
75
100
AcDbEntity
  8
Sichtbar (ISO)
100
AcDbLine
 10
320.2737889811674
 20
136.1480169132027
 30
0.0
 11
320.2737889811674
 21
132.204875258831
 31
0.0
  0
LINE
  5
2C3
330
75
100
AcDbEntity
  8
Sichtbar (ISO)
100
AcDbLine
 10
320.2737889811675
 20
53.68523864904201
 30
0.0
 11
320.2737889811675
 21
53.14801691320276
 31
0.0
  0
LINE
  5
2C4
330
75
100
AcDbEntity
  8
Sichtbar (ISO)
100
AcDbLine
 10
312.6408379931578
 20
130.1766720602691
 30
0.0
 11
314.3728888007267
 21
131.1766720602685
 31
0.0
  0
LINE
  5
2C5
330
75
100
AcDbEntity
  8
Sichtbar (ISO)
100
AcDbLine
 10
288.3921266871935
 20
116.1766720602685
 30
0.0
 11
290.1241774947624
 21
117.1766720602691
 31
0.0
  0
LINE
  5
2C6
330
75
100
AcDbEntity
  8
Sichtbar schmal (ISO)
100
AcDbLine
 10
312.6408379931578
 20
130.1766720602691
 30
0.0
 11
312.6708379931578
 21
130.124710536042
 31
0.0
  0
LINE
  5
2C7
330
75
100
AcDbEntity
  8
Sichtbar (ISO)
100
AcDbLine
 10
314.4028888007266
 20
131.1247105360414
 30
0.0
 11
314.3728888007267
 21
131.1766720602685
 31
0.0
  0
LINE
  5
2C8
330
75
100
AcDbEntity
  8
Sichtbar (ISO)
100
AcDbLine
 10
288.3921266871935
 20
116.1766720602685
 30
0.0
 11
288.4221266871934
 21
116.1247105360414
 31
0.0
  0
LINE
  5
2C9
330
75
100
AcDbEntity
  8
Sichtbar schmal (ISO)
100
AcDbLine
 10
290.1541774947623
 20
117.124710536042
 30
0.0
 11
290.1241774947624
 21
117.1766720602691
 31
0.0
  0
LINE
  5
2CA
330
75
100
AcDbEntity
  8
Sichtbar (ISO)
100
AcDbLine
 10
312.6408379931578
 20
130.1766720602691
 30
0.0
 11
290.1241774947624
 21
117.1766720602691
 31
0.0
  0
CIRCLE
  5
2CB
330
75
100
AcDbEntity
  8
Sichtbar (ISO)
100
AcDbCircle
 10
331.7737889811675
 20
92.94505695403586
 30
0.0
 40
16.5
  0
CIRCLE
  5
2CC
330
75
100
AcDbEntity
  8
Sichtbar (ISO)
100
AcDbCircle
 10
331.7737889811675
 20
92.945056954036
 30
0.0
 40
16.0
  0
CIRCLE
  5
2CD
330
75
100
AcDbEntity
  8
Sichtbar (ISO)
100
AcDbCircle
 10
331.7737889811675
 20
92.945056954036
 30
0.0
 40
10.0
  0
LINE
  5
2CE
330
75
100
AcDbEntity
  8
Sichtbar (ISO)
100
AcDbLine
 10
339.3400100192449
 20
99.19690589011693
 30
0.0
 11
330.1426402053258
 21
102.6235220819809
 31
0.0
  0
LINE
  5
2CF
330
75
100
AcDbEntity
  8
Sichtbar (ISO)
100
AcDbLine
 10
340.9711602649114
 20
89.51844076217197
 30
0.0
 11
339.3400100192449
 21
99.19690589011693
 31
0.0
  0
LINE
  5
2D0
330
75
100
AcDbEntity
  8
Sichtbar (ISO)
100
AcDbLine
 10
333.4049383124731
 20
83.26659182609104
 30
0.0
 11
340.9711602649114
 21
89.51844076217197
 31
0.0
  0
LINE
  5
2D1
330
75
100
AcDbEntity
  8
Sichtbar (ISO)
100
AcDbLine
 10
324.2075667104146
 20
86.69320801795505
 30
0.0
 11
333.4049383124731
 21
83.26659182609104
 31
0.0
  0
LINE
  5
2D2
330
75
100
AcDbEntity
  8
Sichtbar (ISO)
100
AcDbLine
 10
322.5764179548643
 20
96.37167314590001
 30
0.0
 11
324.2075667104146
 21
86.69320801795505
 31
0.0
  0
LINE
  5
2D3
330
75
100
AcDbEntity
  8
Sichtbar (ISO)
100
AcDbLine
 10
330.1426402053258
 20
102.6235220819809
 30
0.0
 11
322.5764179548643
 21
96.37167314590001
 31
0.0
  0
ARC
  5
2D4
330
75
100
AcDbEntity
  8
Sichtbar (ISO)
100
AcDbCircle
 10
323.2737889811675
 20
92.94505695394347
 30
0.0
 40
23.99999999999999
100
AcDbArc
 50
22.84350731792447
 51
337.1564926820753
  0
CIRCLE
  5
2D5
330
75
100
AcDbEntity
  8
Sichtbar (ISO)
100
AcDbCircle
 10
323.2737889811675
 20
92.94505695396289
 30
0.0
 40
26.0
  0
CIRCLE
  5
2D6
330
75
100
AcDbEntity
  8
Sichtbar (ISO)
100
AcDbCircle
 10
323.2737889811675
 20
92.9450569539626
 30
0.0
 40
25.0
  0
LINE
  5
2D7
330
75
100
AcDbEntity
  8
Sichtbar (ISO)
100
AcDbLine
 10
283.2737889811675
 20
72.73779753231784
 30
0.0
 11
283.2737889811675
 21
113.1523163755916
 31
0.0
  0
LINE
  5
2D8
330
75
100
AcDbEntity
  8
Sichtbar (ISO)
100
AcDbLine
 10
353.2737889811675
 20
113.1523163755915
 30
0.0
 11
353.2737889811675
 21
100.7751287927057
 31
0.0
  0
LINE
  5
2D9
330
75
100
AcDbEntity
  8
Sichtbar (ISO)
100
AcDbLine
 10
318.2737889811675
 20
133.3595757972285
 30
0.0
 11
353.2737889811675
 21
113.1523163755915
 31
0.0
  0
LINE
  5
2DA
330
75
100
AcDbEntity
  8
Sichtbar (ISO)
100
AcDbLine
 10
283.2737889811675
 20
113.1523163755916
 30
0.0
 11
318.2737889811675
 21
133.3595757972285
 31
0.0
  0
LINE
  5
2DB
330
75
100
AcDbEntity
  8
Sichtbar (ISO)
100
AcDbLine
 10
318.2737889811674
 20
52.53053811068093
 30
0.0
 11
283.2737889811675
 21
72.73779753231784
 31
0.0
  0
LINE
  5
2DC
330
75
100
AcDbEntity
  8
Sichtbar (ISO)
100
AcDbLine
 10
353.2737889811675
 20
72.7377975323178
 30
0.0
 11
318.2737889811674
 21
52.53053811068093
 31
0.0
  0
LINE
  5
2DD
330
75
100
AcDbEntity
  8
Sichtbar (ISO)
100
AcDbLine
 10
353.2737889811675
 20
85.11498511520372
 30
0.0
 11
353.2737889811675
 21
72.7377975323178
 31
0.0
  0
LINE
  5
2DE
330
75
100
AcDbEntity
  8
Sichtbar (ISO)
100
AcDbLine
 10
353.273787828388
 20
85.1149849086285
 30
0.0
 11
353.273787828388
 21
100.7751289992809
 31
0.0
  0
ARC
  5
2DF
330
75
100
AcDbEntity
  8
Sichtbar schmal (ISO)
100
AcDbCircle
 10
323.2737889811675
 20
92.94505695395473
 30
0.0
 40
31.005
100
AcDbArc
 50
14.62799940095525
 51
345.3720005990447
  0
CIRCLE
  5
2E0
330
75
100
AcDbEntity
  8
Sichtbar (ISO)
100
AcDbCircle
 10
323.2737889811675
 20
92.94505695396242
 30
0.0
 40
29.805
  0
CIRCLE
  5
2E1
330
75
100
AcDbEntity
  8
Sichtbar (ISO)
100
AcDbCircle
 10
323.2737889811675
 20
92.94505695396289
 30
0.0
 40
28.205
  0
ARC
  5
2E2
330
75
100
AcDbEntity
  8
Sichtbar schmal (ISO)
100
AcDbCircle
 10
331.7737889811674
 20
92.945056954036
 30
0.0
 40
14.99999999999998
100
AcDbArc
 50
350.0000000000019
 51
259.9999999999511
  0
ARC
  5
2E3
330
75
100
AcDbEntity
  8
Sichtbar schmal (ISO)
100
AcDbCircle
 10
323.2737889811675
 20
92.94505695396287
 30
0.0
 40
28.32599999999999
100
AcDbArc
 50
350.0000000000019
 51
259.9999999999508
  0
ARC
  5
2E4
330
75
100
AcDbEntity
  8
Sichtbar schmal (ISO)
100
AcDbCircle
 10
331.7737889811675
 20
92.94505695394347
 30
0.0
 40
16.6245
100
AcDbArc
 50
36.4342413370157
 51
259.9999999999509
  0
ELLIPSE
  5
2E5
330
75
100
AcDbEntity
  8
Sichtbar (ISO)
100
AcDbEllipse
 10
470.1413790593131
 20
203.6236786061457
 30
0.0
 11
-0.0000000000000005
 21
2.5
 31
0.0
210
0.0
220
0.0
230
1.0
 40
0.4999999999997428
 41
0.0
 42
6.283185307179585
  0
ELLIPSE
  5
2E6
330
75
100
AcDbEntity
  8
Sichtbar schmal (ISO)
100
AcDbEllipse
 10
487.4618871350048
 20
203.6236786061458
 30
0.0
 11
0.0
 21
2.5
 31
0.0
210
0.0
220
0.0
230
1.0
 40
0.499999999999743
 41
3.141592653589794
 42
6.283185307179588
  0
ELLIPSE
  5
2E7
330
75
100
AcDbEntity
  8
Sichtbar schmal (ISO)
100
AcDbEllipse
 10
494.531407131119
 20
203.6236786061458
 30
0.0
 11
0.0000000000000044
 21
2.5
 31
0.0
210
0.0
220
0.0
230
1.0
 40
0.5099314280165725
 41
0.0000000000000123
 42
3.141592653589805
  0
ELLIPSE
  5
2E8
330
75
100
AcDbEntity
  8
Sichtbar schmal (ISO)
100
AcDbEllipse
 10
510.1161201113428
 20
203.6236786061458
 30
0.0
 11
-0.0000000000000022
 21
2.5
 31
0.0
210
0.0
220
0.0
230
1.0
 40
0.4491278323048956
 41
3.141592653589785
 42
6.283185307179578
  0
ELLIPSE
  5
2E9
330
75
100
AcDbEntity
  8
Sichtbar schmal (ISO)
100
AcDbEllipse
 10
520.9596050660763
 20
203.6236786061458
 30
0.0
 11
0.0000000000000111
 21
2.5
 31
0.0
210
0.0
220
0.0
230
1.0
 40
0.9063077870367752
 41
0.0000000000000058
 42
3.141592653589798
  0
ELLIPSE
  5
2EA
330
75
100
AcDbEntity
  8
Sichtbar schmal (ISO)
100
AcDbEllipse
 10
527.2076004974896
 20
203.6236786061457
 30
0.0
 11
0.0
 21
2.5
 31
0.0
210
0.0
220
0.0
230
1.0
 40
0.9063077870367754
 41
0.0
 42
3.141592653589793
  0
LINE
  5
2EB
330
75
100
AcDbEntity
  8
Sichtbar (ISO)
100
AcDbLine
 10
459.6148328771198
 20
201.1236786061458
 30
0.0
 11
459.6148328771198
 21
206.1236786061458
 31
0.0
  0
LINE
  5
2EC
330
75
100
AcDbEntity
  8
Sichtbar (ISO)
100
AcDbLine
 10
487.4618871350048
 20
201.1236786061458
 30
0.0
 11
470.1413790593131
 21
201.1236786061457
 31
0.0
  0
LINE
  5
2ED
330
75
100
AcDbEntity
  8
Sichtbar (ISO)
100
AcDbLine
 10
487.4618871350048
 20
206.1236786061458
 30
0.0
 11
470.1413790593131
 21
206.1236786061457
 31
0.0
  0
LINE
  5
2EE
330
75
100
AcDbEntity
  8
Sichtbar (ISO)
100
AcDbLine
 10
494.531407131119
 20
206.1236786061457
 30
0.0
 11
487.4618871350048
 21
206.1236786061457
 31
0.0
  0
LINE
  5
2EF
330
75
100
AcDbEntity
  8
Sichtbar (ISO)
100
AcDbLine
 10
487.4618871350048
 20
201.1236786061457
 30
0.0
 11
494.531407131119
 21
201.1236786061457
 31
0.0
  0
LINE
  5
2F0
330
75
100
AcDbEntity
  8
Sichtbar (ISO)
100
AcDbLine
 10
494.531407131119
 20
201.1236786061458
 30
0.0
 11
510.1161201113428
 21
201.1236786061458
 31
0.0
  0
LINE
  5
2F1
330
75
100
AcDbEntity
  8
Sichtbar (ISO)
100
AcDbLine
 10
510.1161201113428
 20
206.1236786061458
 30
0.0
 11
494.531407131119
 21
206.1236786061458
 31
0.0
  0
LINE
  5
2F2
330
75
100
AcDbEntity
  8
Sichtbar (ISO)
100
AcDbLine
 10
520.9596050660762
 20
206.1236786061457
 30
0.0
 11
510.1161201113428
 21
206.1236786061457
 31
0.0
  0
LINE
  5
2F3
330
75
100
AcDbEntity
  8
Sichtbar (ISO)
100
AcDbLine
 10
510.1161201113428
 20
201.1236786061457
 30
0.0
 11
520.9596050660762
 21
201.1236786061457
 31
0.0
  0
LINE
  5
2F4
330
75
100
AcDbEntity
  8
Sichtbar (ISO)
100
AcDbLine
 10
527.2076004974896
 20
201.1236786061457
 30
0.0
 11
520.9596050660763
 21
201.1236786061458
 31
0.0
  0
LINE
  5
2F5
330
75
100
AcDbEntity
  8
Sichtbar (ISO)
100
AcDbLine
 10
527.2076004974896
 20
206.1236786061457
 30
0.0
 11
520.9596050660763
 21
206.1236786061458
 31
0.0
  0
ARC
  5
2F6
330
75
100
AcDbEntity
  8
Sichtbar (ISO)
100
AcDbCircle
 10
559.6148328771147
 20
203.6236786061457
 30
0.0
 40
2.5
100
AcDbArc
 50
270.0
 51
90.0
  0
LINE
  5
2F7
330
75
100
AcDbEntity
  8
Sichtbar (ISO)
100
AcDbLine
 10
527.2076004974896
 20
201.1236786061457
 30
0.0
 11
559.6148328771148
 21
201.1236786061457
 31
0.0
  0
LINE
  5
2F8
330
75
100
AcDbEntity
  8
Sichtbar (ISO)
100
AcDbLine
 10
559.6148328771148
 20
206.1236786061457
 30
0.0
 11
527.2076004974896
 21
206.1236786061457
 31
0.0
  0
LINE
  5
2F9
330
75
100
AcDbEntity
  8
Sichtbar (ISO)
100
AcDbLine
 10
459.6148328771198
 20
206.1236786061458
 30
0.0
 11
470.1413790593179
 21
206.1236786061458
 31
0.0
  0
LINE
  5
2FA
330
75
100
AcDbEntity
  8
Sichtbar (ISO)
100
AcDbLine
 10
459.6148328771198
 20
201.1236786061458
 30
0.0
 11
470.1413790593179
 21
201.1236786061458
 31
0.0
  0
LINE
  5
2FB
330
75
100
AcDbEntity
  8
Sichtbar (ISO)
100
AcDbLine
 10
490.8177928363887
 20
186.1236786061454
 30
0.0
 11
514.8177928363887
 21
186.1236786061454
 31
0.0
  0
ARC
  5
2FC
330
75
100
AcDbEntity
  8
Sichtbar (ISO)
100
AcDbCircle
 10
502.8177928363887
 20
170.1236786061454
 30
0.0
 40
20.00000000000001
100
AcDbArc
 50
126.8698976458441
 51
53.13010235415621
  0
ELLIPSE
  5
2FD
330
75
100
AcDbEntity
  8
Sichtbar (ISO)
100
AcDbEllipse
 10
465.5861777300658
 20
253.5236786061458
 30
0.0
 11
-0.0000000000000028
 21
1.999999999999998
 31
0.0
210
0.0
220
0.0
230
1.0
 40
0.4999999999997417
 41
0.0
 42
1.570796326794895
  0
ELLIPSE
  5
2FE
330
75
100
AcDbEntity
  8
Sichtbar (ISO)
100
AcDbEllipse
 10
465.5861777300658
 20
227.5236786061459
 30
0.0
 11
-0.0000000000000044
 21
-2.000000000000006
 31
0.0
210
0.0
220
0.0
230
1.0
 40
0.499999999999742
 41
4.712388980384709
 42
6.2831853071796
  0
ELLIPSE
  5
2FF
330
75
100
AcDbEntity
  8
Sichtbar (ISO)
100
AcDbEllipse
 10
478.586177730059
 20
227.5236786061458
 30
0.0
 11
0.0000000000000029
 21
-1.999999999999991
 31
0.0
210
0.0
220
0.0
230
1.0
 40
0.4999999999997412
 41
0.0
 42
1.570796326794895
  0
ELLIPSE
  5
300
330
75
100
AcDbEntity
  8
Sichtbar (ISO)
100
AcDbEllipse
 10
478.586177730059
 20
253.5236786061458
 30
0.0
 11
-0.0000000000000089
 21
1.99999999999999
 31
0.0
210
0.0
220
0.0
230
1.0
 40
0.4999999999997412
 41
4.71238898038467
 42
6.283185307179569
  0
LINE
  5
301
330
75
100
AcDbEntity
  8
Sichtbar (ISO)
100
AcDbLine
 10
478.586177730059
 20
225.5236786061458
 30
0.0
 11
478.6381392542863
 21
225.5236786061459
 31
0.0
  0
ELLIPSE
  5
302
330
75
100
AcDbEntity
  8
Sichtbar (ISO)
100
AcDbEllipse
 10
478.6381392542863
 20
227.5236786061459
 30
0.0
 11
0.0000000000000075
 21
-1.99999999999999
 31
0.0
210
0.0
220
0.0
230
1.0
 40
0.4999999999997437
 41
0.0
 42
1.570796326794894
  0
LINE
  5
303
330
75
100
AcDbEntity
  8
Sichtbar schmal (ISO)
100
AcDbLine
 10
479.6381392542858
 20
227.5236786061459
 30
0.0
 11
479.5861777300586
 21
227.5236786061459
 31
0.0
  0
LINE
  5
304
330
75
100
AcDbEntity
  8
Sichtbar schmal (ISO)
100
AcDbLine
 10
479.5861777300586
 20
253.5236786061458
 30
0.0
 11
479.6381392542858
 21
253.5236786061458
 31
0.0
  0
ELLIPSE
  5
305
330
75
100
AcDbEntity
  8
Sichtbar (ISO)
100
AcDbEllipse
 10
478.6381392542863
 20
253.5236786061458
 30
0.0
 11
-0.0000000000000044
 21
2.000000000000002
 31
0.0
210
0.0
220
0.0
230
1.0
 40
0.4999999999997423
 41
4.712388980384687
 42
6.283185307179589
  0
LINE
  5
306
330
75
100
AcDbEntity
  8
Sichtbar (ISO)
100
AcDbLine
 10
478.6381392542863
 20
255.5236786061458
 30
0.0
 11
478.586177730059
 21
255.5236786061458
 31
0.0
  0
LINE
  5
307
330
75
100
AcDbEntity
  8
Sichtbar (ISO)
100
AcDbLine
 10
464.5861777300663
 20
227.5236786061459
 30
0.0
 11
464.5861777300663
 21
253.5236786061458
 31
0.0
  0
LINE
  5
308
330
75
100
AcDbEntity
  8
Sichtbar (ISO)
100
AcDbLine
 10
478.586177730059
 20
225.5236786061458
 30
0.0
 11
465.5861777300658
 21
225.5236786061458
 31
0.0
  0
LINE
  5
309
330
75
100
AcDbEntity
  8
Sichtbar (ISO)
100
AcDbLine
 10
479.5861777300586
 20
253.5236786061458
 30
0.0
 11
479.5861777300586
 21
227.5236786061459
 31
0.0
  0
LINE
  5
30A
330
75
100
AcDbEntity
  8
Sichtbar (ISO)
100
AcDbLine
 10
465.5861777300658
 20
255.5236786061458
 30
0.0
 11
478.586177730059
 21
255.5236786061458
 31
0.0
  0
LINE
  5
30B
330
75
100
AcDbEntity
  8
Sichtbar (ISO)
100
AcDbLine
 10
479.6381392542858
 20
253.5236786061458
 30
0.0
 11
479.6381392542858
 21
227.5236786061459
 31
0.0
  0
LINE
  5
30C
330
75
100
AcDbEntity
  8
Sichtbar (ISO)
100
AcDbLine
 10
523.0250522580112
 20
265.0236786061458
 30
0.0
 11
482.6105334147373
 21
265.0236786061458
 31
0.0
  0
LINE
  5
30D
330
75
100
AcDbEntity
  8
Sichtbar (ISO)
100
AcDbLine
 10
482.6105334147373
 20
215.5236786061458
 30
0.0
 11
482.6105334147373
 21
265.0236786061458
 31
0.0
  0
LINE
  5
30E
330
75
100
AcDbEntity
  8
Sichtbar (ISO)
100
AcDbLine
 10
523.0250522580112
 20
215.5236786061458
 30
0.0
 11
482.6105334147373
 21
215.5236786061458
 31
0.0
  0
LINE
  5
30F
330
75
100
AcDbEntity
  8
Sichtbar (ISO)
100
AcDbLine
 10
523.0250522580112
 20
215.5236786061458
 30
0.0
 11
523.0250522580112
 21
265.0236786061458
 31
0.0
  0
LINE
  5
310
330
75
100
AcDbEntity
  8
Sichtbar (ISO)
100
AcDbLine
 10
482.6105334147373
 20
265.0236786061458
 30
0.0
 11
462.4032739931108
 21
265.0236786061458
 31
0.0
  0
LINE
  5
311
330
75
100
AcDbEntity
  8
Sichtbar (ISO)
100
AcDbLine
 10
543.2323116796585
 20
265.0236786061458
 30
0.0
 11
523.0250522580112
 21
265.0236786061458
 31
0.0
  0
LINE
  5
312
330
75
100
AcDbEntity
  8
Sichtbar (ISO)
100
AcDbLine
 10
543.2323116796585
 20
215.5236786061458
 30
0.0
 11
523.0250522580112
 21
215.5236786061458
 31
0.0
  0
LINE
  5
313
330
75
100
AcDbEntity
  8
Sichtbar (ISO)
100
AcDbLine
 10
543.2323116796585
 20
215.5236786061458
 30
0.0
 11
543.2323116796585
 21
265.0236786061458
 31
0.0
  0
LINE
  5
314
330
75
100
AcDbEntity
  8
Sichtbar (ISO)
100
AcDbLine
 10
462.4032739931108
 20
215.5236786061458
 30
0.0
 11
462.4032739931108
 21
265.0236786061458
 31
0.0
  0
LINE
  5
315
330
75
100
AcDbEntity
  8
Sichtbar (ISO)
100
AcDbLine
 10
482.6105334147373
 20
215.5236786061458
 30
0.0
 11
462.4032739931108
 21
215.5236786061458
 31
0.0
  0
LINE
  5
316
330
75
100
AcDbEntity
  8
Sichtbar (ISO)
100
AcDbLine
 10
519.3177928363887
 20
538.623678606146
 30
0.0
 11
486.3177928363888
 21
538.623678606146
 31
0.0
  0
LINE
  5
317
330
75
100
AcDbEntity
  8
Sichtbar (ISO)
100
AcDbLine
 10
486.8177928363888
 20
539.1236786061462
 30
0.0
 11
518.8177928363887
 21
539.1236786061462
 31
0.0
  0
LINE
  5
318
330
75
100
AcDbEntity
  8
Sichtbar (ISO)
100
AcDbLine
 10
518.8177928363887
 20
539.1236786061462
 30
0.0
 11
519.3177928363887
 21
538.623678606146
 31
0.0
  0
LINE
  5
319
330
75
100
AcDbEntity
  8
Sichtbar (ISO)
100
AcDbLine
 10
486.8177928363888
 20
539.1236786061462
 30
0.0
 11
486.3177928363887
 21
538.623678606146
 31
0.0
  0
POLYLINE
  5
31A
330
75
100
AcDbEntity
  8
Sichtbar (ISO)
100
AcDb2dPolyline
 66
     1
 10
0.0
 20
0.0
 30
0.0
 70
   128
  0
VERTEX
  5
31B
330
31A
100
AcDbEntity
  8
Sichtbar (ISO)
100
AcDbVertex
100
AcDb2dVertex
 10
490.0251697933263
 20
201.124551599615
 30
0.0
  0
VERTEX
  5
31C
330
31A
100
AcDbEntity
  8
Sichtbar (ISO)
100
AcDbVertex
100
AcDb2dVertex
 10
490.1056289112156
 20
201.03779107868
 30
0.0
  0
VERTEX
  5
31E
330
31A
100
AcDbEntity
  8
Sichtbar (ISO)
100
AcDbVertex
100
AcDb2dVertex
 10
490.1902603542392
 20
200.9589889699153
 30
0.0
  0
VERTEX
  5
31F
330
31A
100
AcDbEntity
  8
Sichtbar (ISO)
100
AcDbVertex
100
AcDb2dVertex
 10
490.2788781559054
 20
200.8885315114192
 30
0.0
  0
VERTEX
  5
320
330
31A
100
AcDbEntity
  8
Sichtbar (ISO)
100
AcDbVertex
100
AcDb2dVertex
 10
490.3712999260012
 20
200.8267906361751
 30
0.0
  0
VERTEX
  5
321
330
31A
100
AcDbEntity
  8
Sichtbar (ISO)
100
AcDbVertex
100
AcDb2dVertex
 10
490.4672502910677
 20
200.7737949544124
 30
0.0
  0
VERTEX
  5
322
330
31A
100
AcDbEntity
  8
Sichtbar (ISO)
100
AcDbVertex
100
AcDb2dVertex
 10
490.56622499581
 20
200.7292869740657
 30
0.0
  0
VERTEX
  5
323
330
31A
100
AcDbEntity
  8
Sichtbar (ISO)
100
AcDbVertex
100
AcDb2dVertex
 10
490.667691174704
 20
200.6929805928401
 30
0.0
  0
VERTEX
  5
324
330
31A
100
AcDbEntity
  8
Sichtbar (ISO)
100
AcDbVertex
100
AcDb2dVertex
 10
490.7711159622254
 20
200.6645992451839
 30
0.0
  0
VERTEX
  5
325
330
31A
100
AcDbEntity
  8
Sichtbar (ISO)
100
AcDbVertex
100
AcDb2dVertex
 10
490.8759664928497
 20
200.6438711339168
 30
0.0
  0
VERTEX
  5
326
330
31A
100
AcDbEntity
  8
Sichtbar (ISO)
100
AcDbVertex
100
AcDb2dVertex
 10
490.9817110931458
 20
200.6305196934871
 30
0.0
  0
VERTEX
  5
327
330
31A
100
AcDbEntity
  8
Sichtbar (ISO)
100
AcDbVertex
100
AcDb2dVertex
 10
491.087816897589
 20
200.6242588215999
 30
0.0
  0
VERTEX
  5
328
330
31A
100
AcDbEntity
  8
Sichtbar (ISO)
100
AcDbVertex
100
AcDb2dVertex
 10
491.1944078838408
 20
200.6248024159603
 30
0.0
  0
VERTEX
  5
329
330
31A
100
AcDbEntity
  8
Sichtbar (ISO)
100
AcDbVertex
100
AcDb2dVertex
 10
491.303880158621
 20
200.6318929845027
 30
0.0
  0
VERTEX
  5
32A
330
31A
100
AcDbEntity
  8
Sichtbar (ISO)
100
AcDbVertex
100
AcDb2dVertex
 10
491.4162170326291
 20
200.6454590016536
 30
0.0
  0
VERTEX
  5
32B
330
31A
100
AcDbEntity
  8
Sichtbar (ISO)
100
AcDbVertex
100
AcDb2dVertex
 10
491.531079951483
 20
200.6654527836971
 30
0.0
  0
VERTEX
  5
32C
330
31A
100
AcDbEntity
  8
Sichtbar (ISO)
100
AcDbVertex
100
AcDb2dVertex
 10
491.648129168707
 20
200.6918171101741
 30
0.0
  0
VERTEX
  5
32D
330
31A
100
AcDbEntity
  8
Sichtbar (ISO)
100
AcDbVertex
100
AcDb2dVertex
 10
491.7670237457334
 20
200.7244995289974
 30
0.0
  0
VERTEX
  5
32E
330
31A
100
AcDbEntity
  8
Sichtbar (ISO)
100
AcDbVertex
100
AcDb2dVertex
 10
491.8874263202725
 20
200.7634428197078
 30
0.0
  0
VERTEX
  5
32F
330
31A
100
AcDbEntity
  8
Sichtbar (ISO)
100
AcDbVertex
100
AcDb2dVertex
 10
492.0089947616633
 20
200.8085897618465
 30
0.0
  0
VERTEX
  5
330
330
31A
100
AcDbEntity
  8
Sichtbar (ISO)
100
AcDbVertex
100
AcDb2dVertex
 10
492.1313905155239
 20
200.8598974400691
 30
0.0
  0
VERTEX
  5
331
330
31A
100
AcDbEntity
  8
Sichtbar (ISO)
100
AcDbVertex
100
AcDb2dVertex
 10
492.2542714511927
 20
200.9172895604304
 30
0.0
  0
VERTEX
  5
332
330
31A
100
AcDbEntity
  8
Sichtbar (ISO)
100
AcDbVertex
100
AcDb2dVertex
 10
492.3772465622004
 20
200.9805753880672
 30
0.0
  0
VERTEX
  5
333
330
31A
100
AcDbEntity
  8
Sichtbar (ISO)
100
AcDbVertex
100
AcDb2dVertex
 10
492.4998735820826
 20
201.049506967657
 30
0.0
  0
VERTEX
  5
334
330
31A
100
AcDbEntity
  8
Sichtbar (ISO)
100
AcDbVertex
100
AcDb2dVertex
 10
492.6217090522822
 20
201.1238649541072
 30
0.0
  0
SEQEND
  5
31D
330
31A
100
AcDbEntity
  8
Sichtbar (ISO)
  0
POLYLINE
  5
335
330
75
100
AcDbEntity
  8
Sichtbar (ISO)
100
AcDb2dPolyline
 66
     1
 10
0.0
 20
0.0
 30
0.0
 70
   128
  0
VERTEX
  5
336
330
335
100
AcDbEntity
  8
Sichtbar (ISO)
100
AcDbVertex
100
AcDb2dVertex
 10
492.6217090522822
 20
206.1234930211238
 30
0.0
  0
VERTEX
  5
337
330
335
100
AcDbEntity
  8
Sichtbar (ISO)
100
AcDbVertex
100
AcDb2dVertex
 10
492.4998735820826
 20
206.197851007574
 30
0.0
  0
VERTEX
  5
339
330
335
100
AcDbEntity
  8
Sichtbar (ISO)
100
AcDbVertex
100
AcDb2dVertex
 10
492.3772465622004
 20
206.2667825871638
 30
0.0
  0
VERTEX
  5
33A
330
335
100
AcDbEntity
  8
Sichtbar (ISO)
100
AcDbVertex
100
AcDb2dVertex
 10
492.2542714511927
 20
206.330063646429
 30
0.0
  0
VERTEX
  5
33B
330
335
100
AcDbEntity
  8
Sichtbar (ISO)
100
AcDbVertex
100
AcDb2dVertex
 10
492.1313905155239
 20
206.3874605351619
 30
0.0
  0
VERTEX
  5
33C
330
335
100
AcDbEntity
  8
Sichtbar (ISO)
100
AcDbVertex
100
AcDb2dVertex
 10
492.0089947616633
 20
206.4387682133845
 30
0.0
  0
VERTEX
  5
33D
330
335
100
AcDbEntity
  8
Sichtbar (ISO)
100
AcDbVertex
100
AcDb2dVertex
 10
491.8874263202725
 20
206.4839151555232
 30
0.0
  0
VERTEX
  5
33E
330
335
100
AcDbEntity
  8
Sichtbar (ISO)
100
AcDbVertex
100
AcDb2dVertex
 10
491.7670237457334
 20
206.5228584462337
 30
0.0
  0
VERTEX
  5
33F
330
335
100
AcDbEntity
  8
Sichtbar (ISO)
100
AcDbVertex
100
AcDb2dVertex
 10
491.648129168707
 20
206.5555408650569
 30
0.0
  0
VERTEX
  5
340
330
335
100
AcDbEntity
  8
Sichtbar (ISO)
100
AcDbVertex
100
AcDb2dVertex
 10
491.531079951483
 20
206.581905191534
 30
0.0
  0
VERTEX
  5
341
330
335
100
AcDbEntity
  8
Sichtbar (ISO)
100
AcDbVertex
100
AcDb2dVertex
 10
491.4162170326291
 20
206.6018989735774
 30
0.0
  0
VERTEX
  5
342
330
335
100
AcDbEntity
  8
Sichtbar (ISO)
100
AcDbVertex
100
AcDb2dVertex
 10
491.303880158621
 20
206.6154649907283
 30
0.0
  0
VERTEX
  5
343
330
335
100
AcDbEntity
  8
Sichtbar (ISO)
100
AcDbVertex
100
AcDb2dVertex
 10
491.1944078838408
 20
206.6225555592708
 30
0.0
  0
VERTEX
  5
344
330
335
100
AcDbEntity
  8
Sichtbar (ISO)
100
AcDbVertex
100
AcDb2dVertex
 10
491.087816897589
 20
206.6230991536311
 30
0.0
  0
VERTEX
  5
345
330
335
100
AcDbEntity
  8
Sichtbar (ISO)
100
AcDbVertex
100
AcDb2dVertex
 10
490.9817110931458
 20
206.6168382817439
 30
0.0
  0
VERTEX
  5
346
330
335
100
AcDbEntity
  8
Sichtbar (ISO)
100
AcDbVertex
100
AcDb2dVertex
 10
490.8759664928497
 20
206.6034820729427
 30
0.0
  0
VERTEX
  5
347
330
335
100
AcDbEntity
  8
Sichtbar (ISO)
100
AcDbVertex
100
AcDb2dVertex
 10
490.7711159622254
 20
206.5827539616756
 30
0.0
  0
VERTEX
  5
348
330
335
100
AcDbEntity
  8
Sichtbar (ISO)
100
AcDbVertex
100
AcDb2dVertex
 10
490.667691174704
 20
206.5543773823909
 30
0.0
  0
VERTEX
  5
349
330
335
100
AcDbEntity
  8
Sichtbar (ISO)
100
AcDbVertex
100
AcDb2dVertex
 10
490.56622499581
 20
206.5180710011653
 30
0.0
  0
VERTEX
  5
34A
330
335
100
AcDbEntity
  8
Sichtbar (ISO)
100
AcDbVertex
100
AcDb2dVertex
 10
490.4672502910677
 20
206.4735630208186
 30
0.0
  0
VERTEX
  5
34B
330
335
100
AcDbEntity
  8
Sichtbar (ISO)
100
AcDbVertex
100
AcDb2dVertex
 10
490.3712999260012
 20
206.420567339056
 30
0.0
  0
VERTEX
  5
34C
330
335
100
AcDbEntity
  8
Sichtbar (ISO)
100
AcDbVertex
100
AcDb2dVertex
 10
490.2788781559054
 20
206.3588216954402
 30
0.0
  0
VERTEX
  5
34D
330
335
100
AcDbEntity
  8
Sichtbar (ISO)
100
AcDbVertex
100
AcDb2dVertex
 10
490.1902603542392
 20
206.2883642369441
 30
0.0
  0
VERTEX
  5
34E
330
335
100
AcDbEntity
  8
Sichtbar (ISO)
100
AcDbVertex
100
AcDb2dVertex
 10
490.1056289112156
 20
206.2095668965511
 30
0.0
  0
VERTEX
  5
34F
330
335
100
AcDbEntity
  8
Sichtbar (ISO)
100
AcDbVertex
100
AcDb2dVertex
 10
490.0251697933263
 20
206.122806375616
 30
0.0
  0
SEQEND
  5
338
330
335
100
AcDbEntity
  8
Sichtbar (ISO)
  0
POLYLINE
  5
350
330
75
100
AcDbEntity
  8
Sichtbar (ISO)
100
AcDb2dPolyline
 66
     1
 10
0.0
 20
0.0
 30
0.0
 70
   128
  0
VERTEX
  5
351
330
350
100
AcDbEntity
  8
Sichtbar (ISO)
100
AcDbVertex
100
AcDb2dVertex
 10
515.6104158794469
 20
206.122806375616
 30
0.0
  0
VERTEX
  5
352
330
350
100
AcDbEntity
  8
Sichtbar (ISO)
100
AcDbVertex
100
AcDb2dVertex
 10
515.5299567615574
 20
206.2095668965511
 30
0.0
  0
VERTEX
  5
354
330
350
100
AcDbEntity
  8
Sichtbar (ISO)
100
AcDbVertex
100
AcDb2dVertex
 10
515.4453253185336
 20
206.2883642369441
 30
0.0
  0
VERTEX
  5
355
330
350
100
AcDbEntity
  8
Sichtbar (ISO)
100
AcDbVertex
100
AcDb2dVertex
 10
515.3567075168673
 20
206.3588216954402
 30
0.0
  0
VERTEX
  5
356
330
350
100
AcDbEntity
  8
Sichtbar (ISO)
100
AcDbVertex
100
AcDb2dVertex
 10
515.2642857467715
 20
206.420567339056
 30
0.0
  0
VERTEX
  5
357
330
350
100
AcDbEntity
  8
Sichtbar (ISO)
100
AcDbVertex
100
AcDb2dVertex
 10
515.1683353817049
 20
206.4735630208186
 30
0.0
  0
VERTEX
  5
358
330
350
100
AcDbEntity
  8
Sichtbar (ISO)
100
AcDbVertex
100
AcDb2dVertex
 10
515.0693606769624
 20
206.5180710011653
 30
0.0
  0
VERTEX
  5
359
330
350
100
AcDbEntity
  8
Sichtbar (ISO)
100
AcDbVertex
100
AcDb2dVertex
 10
514.9678944980682
 20
206.5543773823909
 30
0.0
  0
VERTEX
  5
35A
330
350
100
AcDbEntity
  8
Sichtbar (ISO)
100
AcDbVertex
100
AcDb2dVertex
 10
514.8644697105469
 20
206.5827539616756
 30
0.0
  0
VERTEX
  5
35B
330
350
100
AcDbEntity
  8
Sichtbar (ISO)
100
AcDbVertex
100
AcDb2dVertex
 10
514.7596191799225
 20
206.6034820729427
 30
0.0
  0
VERTEX
  5
35C
330
350
100
AcDbEntity
  8
Sichtbar (ISO)
100
AcDbVertex
100
AcDb2dVertex
 10
514.6538745796265
 20
206.6168382817439
 30
0.0
  0
VERTEX
  5
35D
330
350
100
AcDbEntity
  8
Sichtbar (ISO)
100
AcDbVertex
100
AcDb2dVertex
 10
514.547768775183
 20
206.6230991536311
 30
0.0
  0
VERTEX
  5
35E
330
350
100
AcDbEntity
  8
Sichtbar (ISO)
100
AcDbVertex
100
AcDb2dVertex
 10
514.4411777889311
 20
206.6225555592708
 30
0.0
  0
VERTEX
  5
35F
330
350
100
AcDbEntity
  8
Sichtbar (ISO)
100
AcDbVertex
100
AcDb2dVertex
 10
514.3317055141507
 20
206.6154649907283
 30
0.0
  0
VERTEX
  5
360
330
350
100
AcDbEntity
  8
Sichtbar (ISO)
100
AcDbVertex
100
AcDb2dVertex
 10
514.2193686401426
 20
206.6018989735774
 30
0.0
  0
VERTEX
  5
361
330
350
100
AcDbEntity
  8
Sichtbar (ISO)
100
AcDbVertex
100
AcDb2dVertex
 10
514.1045057212888
 20
206.581905191534
 30
0.0
  0
VERTEX
  5
362
330
350
100
AcDbEntity
  8
Sichtbar (ISO)
100
AcDbVertex
100
AcDb2dVertex
 10
513.9874565040646
 20
206.5555408650569
 30
0.0
  0
VERTEX
  5
363
330
350
100
AcDbEntity
  8
Sichtbar (ISO)
100
AcDbVertex
100
AcDb2dVertex
 10
513.8685619270383
 20
206.5228584462337
 30
0.0
  0
VERTEX
  5
364
330
350
100
AcDbEntity
  8
Sichtbar (ISO)
100
AcDbVertex
100
AcDb2dVertex
 10
513.7481593524991
 20
206.4839151555232
 30
0.0
  0
VERTEX
  5
365
330
350
100
AcDbEntity
  8
Sichtbar (ISO)
100
AcDbVertex
100
AcDb2dVertex
 10
513.626590911108
 20
206.4387682133845
 30
0.0
  0
VERTEX
  5
366
330
350
100
AcDbEntity
  8
Sichtbar (ISO)
100
AcDbVertex
100
AcDb2dVertex
 10
513.5041951572475
 20
206.3874605351619
 30
0.0
  0
VERTEX
  5
367
330
350
100
AcDbEntity
  8
Sichtbar (ISO)
100
AcDbVertex
100
AcDb2dVertex
 10
513.3813142215784
 20
206.330063646429
 30
0.0
  0
VERTEX
  5
368
330
350
100
AcDbEntity
  8
Sichtbar (ISO)
100
AcDbVertex
100
AcDb2dVertex
 10
513.2583391105708
 20
206.2667825871638
 30
0.0
  0
VERTEX
  5
369
330
350
100
AcDbEntity
  8
Sichtbar (ISO)
100
AcDbVertex
100
AcDb2dVertex
 10
513.1357120906885
 20
206.197851007574
 30
0.0
  0
VERTEX
  5
36A
330
350
100
AcDbEntity
  8
Sichtbar (ISO)
100
AcDbVertex
100
AcDb2dVertex
 10
513.013876620489
 20
206.1234930211238
 30
0.0
  0
SEQEND
  5
353
330
350
100
AcDbEntity
  8
Sichtbar (ISO)
  0
POLYLINE
  5
36B
330
75
100
AcDbEntity
  8
Sichtbar (ISO)
100
AcDb2dPolyline
 66
     1
 10
0.0
 20
0.0
 30
0.0
 70
   128
  0
VERTEX
  5
36C
330
36B
100
AcDbEntity
  8
Sichtbar (ISO)
100
AcDbVertex
100
AcDb2dVertex
 10
513.013876620489
 20
201.1238649541072
 30
0.0
  0
VERTEX
  5
36D
330
36B
100
AcDbEntity
  8
Sichtbar (ISO)
100
AcDbVertex
100
AcDb2dVertex
 10
513.1357120906885
 20
201.049506967657
 30
0.0
  0
VERTEX
  5
36F
330
36B
100
AcDbEntity
  8
Sichtbar (ISO)
100
AcDbVertex
100
AcDb2dVertex
 10
513.2583391105708
 20
200.9805753880672
 30
0.0
  0
VERTEX
  5
370
330
36B
100
AcDbEntity
  8
Sichtbar (ISO)
100
AcDbVertex
100
AcDb2dVertex
 10
513.3813142215784
 20
200.9172895604304
 30
0.0
  0
VERTEX
  5
371
330
36B
100
AcDbEntity
  8
Sichtbar (ISO)
100
AcDbVertex
100
AcDb2dVertex
 10
513.5041951572475
 20
200.8598974400691
 30
0.0
  0
VERTEX
  5
372
330
36B
100
AcDbEntity
  8
Sichtbar (ISO)
100
AcDbVertex
100
AcDb2dVertex
 10
513.626590911108
 20
200.8085897618465
 30
0.0
  0
VERTEX
  5
373
330
36B
100
AcDbEntity
  8
Sichtbar (ISO)
100
AcDbVertex
100
AcDb2dVertex
 10
513.7481593524991
 20
200.7634428197078
 30
0.0
  0
VERTEX
  5
374
330
36B
100
AcDbEntity
  8
Sichtbar (ISO)
100
AcDbVertex
100
AcDb2dVertex
 10
513.8685619270383
 20
200.7244995289974
 30
0.0
  0
VERTEX
  5
375
330
36B
100
AcDbEntity
  8
Sichtbar (ISO)
100
AcDbVertex
100
AcDb2dVertex
 10
513.9874565040646
 20
200.6918171101741
 30
0.0
  0
VERTEX
  5
376
330
36B
100
AcDbEntity
  8
Sichtbar (ISO)
100
AcDbVertex
100
AcDb2dVertex
 10
514.1045057212888
 20
200.6654527836971
 30
0.0
  0
VERTEX
  5
377
330
36B
100
AcDbEntity
  8
Sichtbar (ISO)
100
AcDbVertex
100
AcDb2dVertex
 10
514.2193686401426
 20
200.6454590016536
 30
0.0
  0
VERTEX
  5
378
330
36B
100
AcDbEntity
  8
Sichtbar (ISO)
100
AcDbVertex
100
AcDb2dVertex
 10
514.3317055141507
 20
200.6318929845027
 30
0.0
  0
VERTEX
  5
379
330
36B
100
AcDbEntity
  8
Sichtbar (ISO)
100
AcDbVertex
100
AcDb2dVertex
 10
514.4411777889311
 20
200.6248024159603
 30
0.0
  0
VERTEX
  5
37A
330
36B
100
AcDbEntity
  8
Sichtbar (ISO)
100
AcDbVertex
100
AcDb2dVertex
 10
514.547768775183
 20
200.6242588215999
 30
0.0
  0
VERTEX
  5
37B
330
36B
100
AcDbEntity
  8
Sichtbar (ISO)
100
AcDbVertex
100
AcDb2dVertex
 10
514.6538745796265
 20
200.6305196934871
 30
0.0
  0
VERTEX
  5
37C
330
36B
100
AcDbEntity
  8
Sichtbar (ISO)
100
AcDbVertex
100
AcDb2dVertex
 10
514.7596191799225
 20
200.6438711339168
 30
0.0
  0
VERTEX
  5
37D
330
36B
100
AcDbEntity
  8
Sichtbar (ISO)
100
AcDbVertex
100
AcDb2dVertex
 10
514.8644697105469
 20
200.6645992451839
 30
0.0
  0
VERTEX
  5
37E
330
36B
100
AcDbEntity
  8
Sichtbar (ISO)
100
AcDbVertex
100
AcDb2dVertex
 10
514.9678944980682
 20
200.6929805928401
 30
0.0
  0
VERTEX
  5
37F
330
36B
100
AcDbEntity
  8
Sichtbar (ISO)
100
AcDbVertex
100
AcDb2dVertex
 10
515.0693606769624
 20
200.7292869740657
 30
0.0
  0
VERTEX
  5
380
330
36B
100
AcDbEntity
  8
Sichtbar (ISO)
100
AcDbVertex
100
AcDb2dVertex
 10
515.1683353817049
 20
200.7737949544124
 30
0.0
  0
VERTEX
  5
381
330
36B
100
AcDbEntity
  8
Sichtbar (ISO)
100
AcDbVertex
100
AcDb2dVertex
 10
515.2642857467715
 20
200.8267906361751
 30
0.0
  0
VERTEX
  5
382
330
36B
100
AcDbEntity
  8
Sichtbar (ISO)
100
AcDbVertex
100
AcDb2dVertex
 10
515.3567075168673
 20
200.8885315114192
 30
0.0
  0
VERTEX
  5
383
330
36B
100
AcDbEntity
  8
Sichtbar (ISO)
100
AcDbVertex
100
AcDb2dVertex
 10
515.4453253185336
 20
200.9589889699153
 30
0.0
  0
VERTEX
  5
384
330
36B
100
AcDbEntity
  8
Sichtbar (ISO)
100
AcDbVertex
100
AcDb2dVertex
 10
515.5299567615574
 20
201.03779107868
 30
0.0
  0
VERTEX
  5
385
330
36B
100
AcDbEntity
  8
Sichtbar (ISO)
100
AcDbVertex
100
AcDb2dVertex
 10
515.6104158794469
 20
201.124551599615
 30
0.0
  0
SEQEND
  5
36E
330
36B
100
AcDbEntity
  8
Sichtbar (ISO)
  0
LINE
  5
386
330
75
100
AcDbEntity
  8
Sichtbar (ISO)
100
AcDbLine
 10
488.0677928363886
 20
196.6236786061458
 30
0.0
 11
517.5677928363886
 21
196.6236786061458
 31
0.0
  0
LINE
  5
387
330
75
100
AcDbEntity
  8
Sichtbar (ISO)
100
AcDbLine
 10
488.0677928363886
 20
196.6236786061458
 30
0.0
 11
488.0677928363886
 21
201.1236786061458
 31
0.0
  0
LINE
  5
388
330
75
100
AcDbEntity
  8
Sichtbar (ISO)
100
AcDbLine
 10
488.0677928363886
 20
206.1236786061458
 30
0.0
 11
488.0677928363886
 21
215.5236786061458
 31
0.0
  0
LINE
  5
389
330
75
100
AcDbEntity
  8
Sichtbar (ISO)
100
AcDbLine
 10
517.5677928363886
 20
196.6236786061458
 30
0.0
 11
517.5677928363886
 21
201.1236786061458
 31
0.0
  0
LINE
  5
38A
330
75
100
AcDbEntity
  8
Sichtbar (ISO)
100
AcDbLine
 10
517.5677928363886
 20
206.1236786061458
 30
0.0
 11
517.5677928363886
 21
215.5236786061458
 31
0.0
  0
POLYLINE
  5
38B
330
75
100
AcDbEntity
  8
Sichtbar (ISO)
100
AcDb2dPolyline
 66
     1
 10
0.0
 20
0.0
 30
0.0
 70
   128
  0
VERTEX
  5
38C
330
38B
100
AcDbEntity
  8
Sichtbar (ISO)
100
AcDbVertex
100
AcDb2dVertex
 10
492.0898341571873
 20
201.124551599615
 30
0.0
  0
VERTEX
  5
38D
330
38B
100
AcDbEntity
  8
Sichtbar (ISO)
100
AcDbVertex
100
AcDb2dVertex
 10
492.0984398758
 20
201.116268938177
 30
0.0
  0
VERTEX
  5
38F
330
38B
100
AcDbEntity
  8
Sichtbar (ISO)
100
AcDbVertex
100
AcDb2dVertex
 10
492.1070885097569
 20
201.1080530339412
 30
0.0
  0
VERTEX
  5
390
330
38B
100
AcDbEntity
  8
Sichtbar (ISO)
100
AcDbVertex
100
AcDb2dVertex
 10
492.1157812511509
 20
201.0999086552791
 30
0.0
  0
VERTEX
  5
391
330
38B
100
AcDbEntity
  8
Sichtbar (ISO)
100
AcDbVertex
100
AcDb2dVertex
 10
492.1245169078892
 20
201.0918262654475
 30
0.0
  0
VERTEX
  5
392
330
38B
100
AcDbEntity
  8
Sichtbar (ISO)
100
AcDbVertex
100
AcDb2dVertex
 10
492.1332942878787
 20
201.0838106328181
 30
0.0
  0
VERTEX
  5
393
330
38B
100
AcDbEntity
  8
Sichtbar (ISO)
100
AcDbVertex
100
AcDb2dVertex
 10
492.1421157753055
 20
201.0758617573909
 30
0.0
  0
VERTEX
  5
394
330
38B
100
AcDbEntity
  8
Sichtbar (ISO)
100
AcDbVertex
100
AcDb2dVertex
 10
492.1509789859836
 20
201.0679844075374
 30
0.0
  0
VERTEX
  5
395
330
38B
100
AcDbEntity
  8
Sichtbar (ISO)
100
AcDbVertex
100
AcDb2dVertex
 10
492.159883919913
 20
201.060173814886
 30
0.0
  0
VERTEX
  5
396
330
38B
100
AcDbEntity
  8
Sichtbar (ISO)
100
AcDbVertex
100
AcDb2dVertex
 10
492.1688317691867
 20
201.0524252110652
 30
0.0
  0
VERTEX
  5
397
330
38B
100
AcDbEntity
  8
Sichtbar (ISO)
100
AcDbVertex
100
AcDb2dVertex
 10
492.1778213417118
 20
201.0447481328181
 30
0.0
  0
VERTEX
  5
398
330
38B
100
AcDbEntity
  8
Sichtbar (ISO)
100
AcDbVertex
100
AcDb2dVertex
 10
492.1868526374882
 20
201.0371425801448
 30
0.0
  0
VERTEX
  5
399
330
38B
100
AcDbEntity
  8
Sichtbar (ISO)
100
AcDbVertex
100
AcDb2dVertex
 10
492.1959256565158
 20
201.0296037846736
 30
0.0
  0
VERTEX
  5
39A
330
38B
100
AcDbEntity
  8
Sichtbar (ISO)
100
AcDbVertex
100
AcDb2dVertex
 10
492.205039206702
 20
201.0221317464046
 30
0.0
  0
VERTEX
  5
39B
330
38B
100
AcDbEntity
  8
Sichtbar (ISO)
100
AcDbVertex
100
AcDb2dVertex
 10
492.2141944801395
 20
201.0147264653377
 30
0.0
  0
VERTEX
  5
39C
330
38B
100
AcDbEntity
  8
Sichtbar (ISO)
100
AcDbVertex
100
AcDb2dVertex
 10
492.2233902847355
 20
201.0073974782161
 30
0.0
  0
VERTEX
  5
39D
330
38B
100
AcDbEntity
  8
Sichtbar (ISO)
100
AcDbVertex
100
AcDb2dVertex
 10
492.2326266204898
 20
201.0001304799251
 30
0.0
  0
VERTEX
  5
39E
330
38B
100
AcDbEntity
  8
Sichtbar (ISO)
100
AcDbVertex
100
AcDb2dVertex
 10
492.2419034874027
 20
200.9929397755794
 30
0.0
  0
VERTEX
  5
39F
330
38B
100
AcDbEntity
  8
Sichtbar (ISO)
100
AcDbVertex
100
AcDb2dVertex
 10
492.2512196933811
 20
200.9858110600642
 30
0.0
  0
VERTEX
  5
3A0
330
38B
100
AcDbEntity
  8
Sichtbar (ISO)
100
AcDbVertex
100
AcDb2dVertex
 10
492.2605776226109
 20
200.9787586384944
 30
0.0
  0
VERTEX
  5
3A1
330
38B
100
AcDbEntity
  8
Sichtbar (ISO)
100
AcDbVertex
100
AcDb2dVertex
 10
492.2699748909061
 20
200.9717729741268
 30
0.0
  0
VERTEX
  5
3A2
330
38B
100
AcDbEntity
  8
Sichtbar (ISO)
100
AcDbVertex
100
AcDb2dVertex
 10
492.279411498267
 20
200.9648588353328
 30
0.0
  0
VERTEX
  5
3A3
330
38B
100
AcDbEntity
  8
Sichtbar (ISO)
100
AcDbVertex
100
AcDb2dVertex
 10
492.2888874446933
 20
200.9580162221126
 30
0.0
  0
VERTEX
  5
3A4
330
38B
100
AcDbEntity
  8
Sichtbar (ISO)
100
AcDbVertex
100
AcDb2dVertex
 10
492.2984027301851
 20
200.9512451344661
 30
0.0
  0
VERTEX
  5
3A5
330
38B
100
AcDbEntity
  8
Sichtbar (ISO)
100
AcDbVertex
100
AcDb2dVertex
 10
492.3079573547426
 20
200.9445455723934
 30
0.0
  0
SEQEND
  5
38E
330
38B
100
AcDbEntity
  8
Sichtbar (ISO)
  0
POLYLINE
  5
3A6
330
75
100
AcDbEntity
  8
Sichtbar (ISO)
100
AcDb2dPolyline
 66
     1
 10
0.0
 20
0.0
 30
0.0
 70
   128
  0
VERTEX
  5
3A7
330
3A6
100
AcDbEntity
  8
Sichtbar (ISO)
100
AcDbVertex
100
AcDb2dVertex
 10
492.3078989421908
 20
206.3029316121272
 30
0.0
  0
VERTEX
  5
3A8
330
3A6
100
AcDbEntity
  8
Sichtbar (ISO)
100
AcDbVertex
100
AcDb2dVertex
 10
492.2983550464693
 20
206.2962368184261
 30
0.0
  0
VERTEX
  5
3AA
330
3A6
100
AcDbEntity
  8
Sichtbar (ISO)
100
AcDbVertex
100
AcDb2dVertex
 10
492.2888504898136
 20
206.2894704991511
 30
0.0
  0
VERTEX
  5
3AB
330
3A6
100
AcDbEntity
  8
Sichtbar (ISO)
100
AcDbVertex
100
AcDb2dVertex
 10
492.2793840801303
 20
206.2826326543025
 30
0.0
  0
VERTEX
  5
3AC
330
3A6
100
AcDbEntity
  8
Sichtbar (ISO)
100
AcDbVertex
100
AcDb2dVertex
 10
492.2699570095127
 20
206.2757185155086
 30
0.0
  0
VERTEX
  5
3AD
330
3A6
100
AcDbEntity
  8
Sichtbar (ISO)
100
AcDbVertex
100
AcDb2dVertex
 10
492.2605680858676
 20
206.2687376195125
 30
0.0
  0
VERTEX
  5
3AE
330
3A6
100
AcDbEntity
  8
Sichtbar (ISO)
100
AcDbVertex
100
AcDb2dVertex
 10
492.2512196933811
 20
206.2616851979427
 30
0.0
  0
VERTEX
  5
3AF
330
3A6
100
AcDbEntity
  8
Sichtbar (ISO)
100
AcDbVertex
100
AcDb2dVertex
 10
492.24191063996
 20
206.2545612507991
 30
0.0
  0
VERTEX
  5
3B0
330
3A6
100
AcDbEntity
  8
Sichtbar (ISO)
100
AcDbVertex
100
AcDb2dVertex
 10
492.2326409256046
 20
206.2473657780818
 30
0.0
  0
VERTEX
  5
3B1
330
3A6
100
AcDbEntity
  8
Sichtbar (ISO)
100
AcDbVertex
100
AcDb2dVertex
 10
492.2234105503147
 20
206.2400987797908
 30
0.0
  0
VERTEX
  5
3B2
330
3A6
100
AcDbEntity
  8
Sichtbar (ISO)
100
AcDbVertex
100
AcDb2dVertex
 10
492.2142207061832
 20
206.232760255926
 30
0.0
  0
VERTEX
  5
3B3
330
3A6
100
AcDbEntity
  8
Sichtbar (ISO)
100
AcDbVertex
100
AcDb2dVertex
 10
492.2050713932102
 20
206.2253549748592
 30
0.0
  0
VERTEX
  5
3B4
330
3A6
100
AcDbEntity
  8
Sichtbar (ISO)
100
AcDbVertex
100
AcDb2dVertex
 10
492.1959626113956
 20
206.2178733998469
 30
0.0
  0
VERTEX
  5
3B5
330
3A6
100
AcDbEntity
  8
Sichtbar (ISO)
100
AcDbVertex
100
AcDb2dVertex
 10
492.1868931686466
 20
206.2103298360042
 30
0.0
  0
VERTEX
  5
3B6
330
3A6
100
AcDbEntity
  8
Sichtbar (ISO)
100
AcDbVertex
100
AcDb2dVertex
 10
492.1778654491489
 20
206.2027099782161
 30
0.0
  0
VERTEX
  5
3B7
330
3A6
100
AcDbEntity
  8
Sichtbar (ISO)
100
AcDbVertex
100
AcDb2dVertex
 10
492.1688782608097
 20
206.1950233632259
 30
0.0
  0
VERTEX
  5
3B8
330
3A6
100
AcDbEntity
  8
Sichtbar (ISO)
100
AcDbVertex
100
AcDb2dVertex
 10
492.1599327957218
 20
206.1872699910335
 30
0.0
  0
VERTEX
  5
3B9
330
3A6
100
AcDbEntity
  8
Sichtbar (ISO)
100
AcDbVertex
100
AcDb2dVertex
 10
492.1510278617923
 20
206.1794450932674
 30
0.0
  0
VERTEX
  5
3BA
330
3A6
100
AcDbEntity
  8
Sichtbar (ISO)
100
AcDbVertex
100
AcDb2dVertex
 10
492.1421646511142
 20
206.1715486699275
 30
0.0
  0
VERTEX
  5
3BB
330
3A6
100
AcDbEntity
  8
Sichtbar (ISO)
100
AcDbVertex
100
AcDb2dVertex
 10
492.1333431636875
 20
206.1635902577571
 30
0.0
  0
VERTEX
  5
3BC
330
3A6
100
AcDbEntity
  8
Sichtbar (ISO)
100
AcDbVertex
100
AcDb2dVertex
 10
492.1245633995122
 20
206.1555555516414
 30
0.0
  0
VERTEX
  5
3BD
330
3A6
100
AcDbEntity
  8
Sichtbar (ISO)
100
AcDbVertex
100
AcDb2dVertex
 10
492.1158253585881
 20
206.1474588566951
 30
0.0
  0
VERTEX
  5
3BE
330
3A6
100
AcDbEntity
  8
Sichtbar (ISO)
100
AcDbVertex
100
AcDb2dVertex
 10
492.1071302330083
 20
206.1392906361751
 30
0.0
  0
VERTEX
  5
3BF
330
3A6
100
AcDbEntity
  8
Sichtbar (ISO)
100
AcDbVertex
100
AcDb2dVertex
 10
492.0984768306797
 20
206.1310556584529
 30
0.0
  0
VERTEX
  5
3C0
330
3A6
100
AcDbEntity
  8
Sichtbar (ISO)
100
AcDbVertex
100
AcDb2dVertex
 10
492.0898651516026
 20
206.1227539235286
 30
0.0
  0
SEQEND
  5
3A9
330
3A6
100
AcDbEntity
  8
Sichtbar (ISO)
  0
POLYLINE
  5
3C1
330
75
100
AcDbEntity
  8
Sichtbar (ISO)
100
AcDb2dPolyline
 66
     1
 10
0.0
 20
0.0
 30
0.0
 70
   128
  0
VERTEX
  5
3C2
330
3C1
100
AcDbEntity
  8
Sichtbar (ISO)
100
AcDbVertex
100
AcDb2dVertex
 10
513.5457205211706
 20
206.1227539235286
 30
0.0
  0
VERTEX
  5
3C3
330
3C1
100
AcDbEntity
  8
Sichtbar (ISO)
100
AcDbVertex
100
AcDb2dVertex
 10
513.5371088420933
 20
206.1310556584529
 30
0.0
  0
VERTEX
  5
3C5
330
3C1
100
AcDbEntity
  8
Sichtbar (ISO)
100
AcDbVertex
100
AcDb2dVertex
 10
513.5284554397649
 20
206.1392906361751
 30
0.0
  0
VERTEX
  5
3C6
330
3C1
100
AcDbEntity
  8
Sichtbar (ISO)
100
AcDbVertex
100
AcDb2dVertex
 10
513.519760314185
 20
206.1474588566951
 30
0.0
  0
VERTEX
  5
3C7
330
3C1
100
AcDbEntity
  8
Sichtbar (ISO)
100
AcDbVertex
100
AcDb2dVertex
 10
513.511022273261
 20
206.1555555516414
 30
0.0
  0
VERTEX
  5
3C8
330
3C1
100
AcDbEntity
  8
Sichtbar (ISO)
100
AcDbVertex
100
AcDb2dVertex
 10
513.5022425090855
 20
206.1635902577571
 30
0.0
  0
VERTEX
  5
3C9
330
3C1
100
AcDbEntity
  8
Sichtbar (ISO)
100
AcDbVertex
100
AcDb2dVertex
 10
513.4934210216587
 20
206.1715486699275
 30
0.0
  0
VERTEX
  5
3CA
330
3C1
100
AcDbEntity
  8
Sichtbar (ISO)
100
AcDbVertex
100
AcDb2dVertex
 10
513.4845578109806
 20
206.1794450932674
 30
0.0
  0
VERTEX
  5
3CB
330
3C1
100
AcDbEntity
  8
Sichtbar (ISO)
100
AcDbVertex
100
AcDb2dVertex
 10
513.4756528770512
 20
206.1872699910335
 30
0.0
  0
VERTEX
  5
3CC
330
3C1
100
AcDbEntity
  8
Sichtbar (ISO)
100
AcDbVertex
100
AcDb2dVertex
 10
513.4667074119632
 20
206.1950233632259
 30
0.0
  0
VERTEX
  5
3CD
330
3C1
100
AcDbEntity
  8
Sichtbar (ISO)
100
AcDbVertex
100
AcDb2dVertex
 10
513.457720223624
 20
206.2027099782161
 30
0.0
  0
VERTEX
  5
3CE
330
3C1
100
AcDbEntity
  8
Sichtbar (ISO)
100
AcDbVertex
100
AcDb2dVertex
 10
513.4486925041263
 20
206.2103298360042
 30
0.0
  0
VERTEX
  5
3CF
330
3C1
100
AcDbEntity
  8
Sichtbar (ISO)
100
AcDbVertex
100
AcDb2dVertex
 10
513.4396230613773
 20
206.2178733998469
 30
0.0
  0
VERTEX
  5
3D0
330
3C1
100
AcDbEntity
  8
Sichtbar (ISO)
100
AcDbVertex
100
AcDb2dVertex
 10
513.4305142795628
 20
206.2253549748592
 30
0.0
  0
VERTEX
  5
3D1
330
3C1
100
AcDbEntity
  8
Sichtbar (ISO)
100
AcDbVertex
100
AcDb2dVertex
 10
513.4213649665897
 20
206.232760255926
 30
0.0
  0
VERTEX
  5
3D2
330
3C1
100
AcDbEntity
  8
Sichtbar (ISO)
100
AcDbVertex
100
AcDb2dVertex
 10
513.4121751224582
 20
206.2400987797908
 30
0.0
  0
VERTEX
  5
3D3
330
3C1
100
AcDbEntity
  8
Sichtbar (ISO)
100
AcDbVertex
100
AcDb2dVertex
 10
513.4029447471683
 20
206.2473657780818
 30
0.0
  0
VERTEX
  5
3D4
330
3C1
100
AcDbEntity
  8
Sichtbar (ISO)
100
AcDbVertex
100
AcDb2dVertex
 10
513.3936750328128
 20
206.2545612507991
 30
0.0
  0
VERTEX
  5
3D5
330
3C1
100
AcDbEntity
  8
Sichtbar (ISO)
100
AcDbVertex
100
AcDb2dVertex
 10
513.3843659793918
 20
206.2616851979427
 30
0.0
  0
VERTEX
  5
3D6
330
3C1
100
AcDbEntity
  8
Sichtbar (ISO)
100
AcDbVertex
100
AcDb2dVertex
 10
513.3750175869052
 20
206.2687376195125
 30
0.0
  0
VERTEX
  5
3D7
330
3C1
100
AcDbEntity
  8
Sichtbar (ISO)
100
AcDbVertex
100
AcDb2dVertex
 10
513.3656286632603
 20
206.2757185155086
 30
0.0
  0
VERTEX
  5
3D8
330
3C1
100
AcDbEntity
  8
Sichtbar (ISO)
100
AcDbVertex
100
AcDb2dVertex
 10
513.3562015926425
 20
206.2826326543025
 30
0.0
  0
VERTEX
  5
3D9
330
3C1
100
AcDbEntity
  8
Sichtbar (ISO)
100
AcDbVertex
100
AcDb2dVertex
 10
513.3467351829593
 20
206.2894704991511
 30
0.0
  0
VERTEX
  5
3DA
330
3C1
100
AcDbEntity
  8
Sichtbar (ISO)
100
AcDbVertex
100
AcDb2dVertex
 10
513.3372306263034
 20
206.2962368184261
 30
0.0
  0
VERTEX
  5
3DB
330
3C1
100
AcDbEntity
  8
Sichtbar (ISO)
100
AcDbVertex
100
AcDb2dVertex
 10
513.3276867305819
 20
206.3029316121272
 30
0.0
  0
SEQEND
  5
3C4
330
3C1
100
AcDbEntity
  8
Sichtbar (ISO)
  0
POLYLINE
  5
3DC
330
75
100
AcDbEntity
  8
Sichtbar (ISO)
100
AcDb2dPolyline
 66
     1
 10
0.0
 20
0.0
 30
0.0
 70
   128
  0
VERTEX
  5
3DD
330
3DC
100
AcDbEntity
  8
Sichtbar (ISO)
100
AcDbVertex
100
AcDb2dVertex
 10
513.32762831803
 20
200.9445455723934
 30
0.0
  0
VERTEX
  5
3DE
330
3DC
100
AcDbEntity
  8
Sichtbar (ISO)
100
AcDbVertex
100
AcDb2dVertex
 10
513.3371829425875
 20
200.9512451344661
 30
0.0
  0
VERTEX
  5
3E0
330
3DC
100
AcDbEntity
  8
Sichtbar (ISO)
100
AcDbVertex
100
AcDb2dVertex
 10
513.3466982280796
 20
200.9580162221126
 30
0.0
  0
VERTEX
  5
3E1
330
3DC
100
AcDbEntity
  8
Sichtbar (ISO)
100
AcDbVertex
100
AcDb2dVertex
 10
513.356174174506
 20
200.9648588353328
 30
0.0
  0
VERTEX
  5
3E2
330
3DC
100
AcDbEntity
  8
Sichtbar (ISO)
100
AcDbVertex
100
AcDb2dVertex
 10
513.3656107818668
 20
200.9717729741268
 30
0.0
  0
VERTEX
  5
3E3
330
3DC
100
AcDbEntity
  8
Sichtbar (ISO)
100
AcDbVertex
100
AcDb2dVertex
 10
513.3750080501621
 20
200.9787586384944
 30
0.0
  0
VERTEX
  5
3E4
330
3DC
100
AcDbEntity
  8
Sichtbar (ISO)
100
AcDbVertex
100
AcDb2dVertex
 10
513.3843659793918
 20
200.9858110600642
 30
0.0
  0
VERTEX
  5
3E5
330
3DC
100
AcDbEntity
  8
Sichtbar (ISO)
100
AcDbVertex
100
AcDb2dVertex
 10
513.3936821853702
 20
200.9929397755794
 30
0.0
  0
VERTEX
  5
3E6
330
3DC
100
AcDbEntity
  8
Sichtbar (ISO)
100
AcDbVertex
100
AcDb2dVertex
 10
513.4029590522831
 20
201.0001304799251
 30
0.0
  0
VERTEX
  5
3E7
330
3DC
100
AcDbEntity
  8
Sichtbar (ISO)
100
AcDbVertex
100
AcDb2dVertex
 10
513.4121953880375
 20
201.0073974782161
 30
0.0
  0
VERTEX
  5
3E8
330
3DC
100
AcDbEntity
  8
Sichtbar (ISO)
100
AcDbVertex
100
AcDb2dVertex
 10
513.4213911926334
 20
201.0147264653377
 30
0.0
  0
VERTEX
  5
3E9
330
3DC
100
AcDbEntity
  8
Sichtbar (ISO)
100
AcDbVertex
100
AcDb2dVertex
 10
513.4305464660709
 20
201.0221317464046
 30
0.0
  0
VERTEX
  5
3EA
330
3DC
100
AcDbEntity
  8
Sichtbar (ISO)
100
AcDbVertex
100
AcDb2dVertex
 10
513.439660016257
 20
201.0296037846736
 30
0.0
  0
VERTEX
  5
3EB
330
3DC
100
AcDbEntity
  8
Sichtbar (ISO)
100
AcDbVertex
100
AcDb2dVertex
 10
513.4487330352848
 20
201.0371425801448
 30
0.0
  0
VERTEX
  5
3EC
330
3DC
100
AcDbEntity
  8
Sichtbar (ISO)
100
AcDbVertex
100
AcDb2dVertex
 10
513.4577643310612
 20
201.0447481328181
 30
0.0
  0
VERTEX
  5
3ED
330
3DC
100
AcDbEntity
  8
Sichtbar (ISO)
100
AcDbVertex
100
AcDb2dVertex
 10
513.4667539035862
 20
201.0524252110652
 30
0.0
  0
VERTEX
  5
3EE
330
3DC
100
AcDbEntity
  8
Sichtbar (ISO)
100
AcDbVertex
100
AcDb2dVertex
 10
513.4757017528598
 20
201.060173814886
 30
0.0
  0
VERTEX
  5
3EF
330
3DC
100
AcDbEntity
  8
Sichtbar (ISO)
100
AcDbVertex
100
AcDb2dVertex
 10
513.4846066867893
 20
201.0679844075374
 30
0.0
  0
VERTEX
  5
3F0
330
3DC
100
AcDbEntity
  8
Sichtbar (ISO)
100
AcDbVertex
100
AcDb2dVertex
 10
513.4934698974674
 20
201.0758617573909
 30
0.0
  0
VERTEX
  5
3F1
330
3DC
100
AcDbEntity
  8
Sichtbar (ISO)
100
AcDbVertex
100
AcDb2dVertex
 10
513.5022913848941
 20
201.0838106328181
 30
0.0
  0
VERTEX
  5
3F2
330
3DC
100
AcDbEntity
  8
Sichtbar (ISO)
100
AcDbVertex
100
AcDb2dVertex
 10
513.5110687648839
 20
201.0918262654475
 30
0.0
  0
VERTEX
  5
3F3
330
3DC
100
AcDbEntity
  8
Sichtbar (ISO)
100
AcDbVertex
100
AcDb2dVertex
 10
513.5198044216222
 20
201.0999086552791
 30
0.0
  0
VERTEX
  5
3F4
330
3DC
100
AcDbEntity
  8
Sichtbar (ISO)
100
AcDbVertex
100
AcDb2dVertex
 10
513.5284971630162
 20
201.1080530339412
 30
0.0
  0
VERTEX
  5
3F5
330
3DC
100
AcDbEntity
  8
Sichtbar (ISO)
100
AcDbVertex
100
AcDb2dVertex
 10
513.5371457969731
 20
201.116268938177
 30
0.0
  0
VERTEX
  5
3F6
330
3DC
100
AcDbEntity
  8
Sichtbar (ISO)
100
AcDbVertex
100
AcDb2dVertex
 10
513.5457515155858
 20
201.124551599615
 30
0.0
  0
SEQEND
  5
3DF
330
3DC
100
AcDbEntity
  8
Sichtbar (ISO)
  0
CIRCLE
  5
3F7
330
75
100
AcDbEntity
  8
Sichtbar (ISO)
100
AcDbCircle
 10
502.8177928363747
 20
244.5236786061458
 30
0.0
 40
15.1455
  0
CIRCLE
  5
3F8
330
75
100
AcDbEntity
  8
Sichtbar (ISO)
100
AcDbCircle
 10
502.8177928363743
 20
244.5236786061458
 30
0.0
 40
16.7455
  0
LINE
  5
3F9
330
75
100
AcDbEntity
  8
Sichtbar schmal (ISO)
100
AcDbLine
 10
473.0127928363862
 20
266.2236786061458
 30
0.0
 11
532.6227928363862
 21
266.2236786061458
 31
0.0
  0
ARC
  5
3FA
330
75
100
AcDbEntity
  8
Sichtbar (ISO)
100
AcDbCircle
 10
471.8127928363862
 20
266.2236786061458
 30
0.0
 40
1.199999999999999
100
AcDbArc
 50
270.0
 51
0.0
  0
ARC
  5
3FB
330
75
100
AcDbEntity
  8
Sichtbar (ISO)
100
AcDbCircle
 10
533.8227928363862
 20
266.2236786061458
 30
0.0
 40
1.199999999999999
100
AcDbArc
 50
180.0
 51
270.0
  0
LINE
  5
3FC
330
75
100
AcDbEntity
  8
Sichtbar (ISO)
100
AcDbLine
 10
532.6227928363862
 20
290.9236786061458
 30
0.0
 11
473.0127928363862
 21
290.9236786061458
 31
0.0
  0
LINE
  5
3FD
330
75
100
AcDbEntity
  8
Sichtbar (ISO)
100
AcDbLine
 10
474.6127928363861
 20
292.5236786061458
 30
0.0
 11
531.0227928363862
 21
292.5236786061458
 31
0.0
  0
LINE
  5
3FE
330
75
100
AcDbEntity
  8
Sichtbar (ISO)
100
AcDbLine
 10
531.0227928363862
 20
292.5236786061458
 30
0.0
 11
532.6227928363862
 21
290.9236786061458
 31
0.0
  0
LINE
  5
3FF
330
75
100
AcDbEntity
  8
Sichtbar (ISO)
100
AcDbLine
 10
474.6127928363861
 20
292.5236786061458
 30
0.0
 11
473.0127928363862
 21
290.9236786061458
 31
0.0
  0
LINE
  5
400
330
75
100
AcDbEntity
  8
Sichtbar (ISO)
100
AcDbLine
 10
506.8177928363887
 20
196.6236786061458
 30
0.0
 11
506.8177928363887
 21
186.1236786061454
 31
0.0
  0
LINE
  5
401
330
75
100
AcDbEntity
  8
Sichtbar (ISO)
100
AcDbLine
 10
498.8177928363888
 20
196.6236786061458
 30
0.0
 11
498.8177928363888
 21
186.1236786061454
 31
0.0
  0
LINE
  5
402
330
75
100
AcDbEntity
  8
Sichtbar (ISO)
100
AcDbLine
 10
486.3177928363887
 20
292.5236786061458
 30
0.0
 11
486.3177928363888
 21
538.623678606146
 31
0.0
  0
LINE
  5
403
330
75
100
AcDbEntity
  8
Sichtbar (ISO)
100
AcDbLine
 10
519.3177928363887
 20
292.5236786061458
 30
0.0
 11
519.3177928363887
 21
538.623678606146
 31
0.0
  0
LINE
  5
404
330
75
100
AcDbEntity
  8
Sichtbar (ISO)
100
AcDbLine
 10
473.0127928363862
 20
266.2236786061458
 30
0.0
 11
473.0127928363862
 21
290.9236786061458
 31
0.0
  0
LINE
  5
405
330
75
100
AcDbEntity
  8
Sichtbar (ISO)
100
AcDbLine
 10
532.6227928363862
 20
266.2236786061458
 30
0.0
 11
532.6227928363862
 21
290.9236786061458
 31
0.0
  0
LINE
  5
406
330
75
100
AcDbEntity
  8
Sichtbar schmal (ISO)
100
AcDbLine
 10
506.0737928363887
 20
186.1236786061454
 30
0.0
 11
506.0737928363887
 21
196.6236786061458
 31
0.0
  0
LINE
  5
407
330
75
100
AcDbEntity
  8
Sichtbar schmal (ISO)
100
AcDbLine
 10
499.5617928363887
 20
196.6236786061458
 30
0.0
 11
499.5617928363887
 21
186.1236786061454
 31
0.0
  0
ARC
  5
408
330
75
100
AcDbEntity
  8
Sichtbar schmal (ISO)
100
AcDbCircle
 10
502.8177928363743
 20
244.5236786061458
 30
0.0
 40
16.6245
100
AcDbArc
 50
350.0000000000019
 51
259.9999999999509
  0
LINE
  5
409
330
75
100
AcDbEntity
  8
Sichtbar schmal (ISO)
100
AcDbLine
 10
474.4917928363862
 20
292.4026786061458
 30
0.0
 11
474.4917928363862
 21
268.5236786061458
 31
0.0
  0
LINE
  5
40A
330
75
100
AcDbEntity
  8
Sichtbar schmal (ISO)
100
AcDbLine
 10
531.1437928363861
 20
268.5236786061458
 30
0.0
 11
531.1437928363861
 21
292.4026786061458
 31
0.0
  0
LINE
  5
40B
330
75
100
AcDbEntity
  8
Sichtbar (ISO)
100
AcDbLine
 10
532.6227928363862
 20
268.5236786061458
 30
0.0
 11
473.0127928363862
 21
268.5236786061458
 31
0.0
  0
ELLIPSE
  5
40C
330
75
100
AcDbEntity
  8
Sichtbar (ISO)
100
AcDbEllipse
 10
722.6694807930181
 20
203.6236786061457
 30
0.0
 11
0.0000000000000003
 21
2.5
 31
0.0
210
0.0
220
0.0
230
1.0
 40
0.8660254037847355
 41
0.0
 42
6.283185307179586
  0
ELLIPSE
  5
40D
330
75
100
AcDbEntity
  8
Sichtbar schmal (ISO)
100
AcDbEllipse
 10
712.6694807930284
 20
203.6236786061458
 30
0.0
 11
0.0000000000000003
 21
-2.5
 31
0.0
210
0.0
220
0.0
230
1.0
 40
0.8660254037847355
 41
3.141592653589793
 42
6.283185307179586
  0
ELLIPSE
  5
40E
330
75
100
AcDbEntity
  8
Sichtbar schmal (ISO)
100
AcDbEllipse
 10
730.416169069135
 20
203.6236786061457
 30
0.0
 11
0.0000000000000044
 21
2.5
 31
0.0
210
0.0
220
0.0
230
1.0
 40
0.422618261740162
 41
3.141592653589796
 42
6.28318530717959
  0
CIRCLE
  5
40F
330
75
100
AcDbEntity
  8
Sichtbar (ISO)
100
AcDbCircle
 10
706.2316586195029
 20
203.6236786061458
 30
0.0
 40
2.5
  0
LINE
  5
410
330
75
100
AcDbEntity
  8
Sichtbar (ISO)
100
AcDbLine
 10
712.6694807930284
 20
206.1236786061458
 30
0.0
 11
722.6694807930181
 21
206.1236786061457
 31
0.0
  0
LINE
  5
411
330
75
100
AcDbEntity
  8
Sichtbar (ISO)
100
AcDbLine
 10
712.6694807930284
 20
201.1236786061458
 30
0.0
 11
722.6694807930181
 21
201.1236786061457
 31
0.0
  0
ARC
  5
412
330
75
100
AcDbEntity
  8
Sichtbar (ISO)
100
AcDbCircle
 10
711.7316586195215
 20
203.6236786061457
 30
0.0
 40
2.5
100
AcDbArc
 50
90.0
 51
270.0
  0
LINE
  5
413
330
75
100
AcDbEntity
  8
Sichtbar (ISO)
100
AcDbLine
 10
712.6694807930284
 20
206.1236786061457
 30
0.0
 11
711.7316586195215
 21
206.1236786061457
 31
0.0
  0
LINE
  5
414
330
75
100
AcDbEntity
  8
Sichtbar (ISO)
100
AcDbLine
 10
711.7316586195215
 20
201.1236786061457
 30
0.0
 11
712.6694807930284
 21
201.1236786061457
 31
0.0
  0
LINE
  5
415
330
75
100
AcDbEntity
  8
Sichtbar (ISO)
100
AcDbLine
 10
730.416169069135
 20
201.1236786061457
 30
0.0
 11
722.6694807930499
 21
201.1236786061457
 31
0.0
  0
LINE
  5
416
330
75
100
AcDbEntity
  8
Sichtbar (ISO)
100
AcDbLine
 10
730.416169069135
 20
206.1236786061457
 30
0.0
 11
722.6694807930499
 21
206.1236786061457
 31
0.0
  0
ARC
  5
417
330
75
100
AcDbEntity
  8
Sichtbar (ISO)
100
AcDbCircle
 10
740.2316586195523
 20
203.6236786061457
 30
0.0
 40
2.5
100
AcDbArc
 50
270.0
 51
90.0
  0
LINE
  5
418
330
75
100
AcDbEntity
  8
Sichtbar (ISO)
100
AcDbLine
 10
706.2316586195521
 20
201.1236786061457
 30
0.0
 11
707.8899710147344
 21
201.1236786061457
 31
0.0
  0
LINE
  5
419
330
75
100
AcDbEntity
  8
Sichtbar (ISO)
100
AcDbLine
 10
730.416169069135
 20
201.1236786061457
 30
0.0
 11
740.2316586195523
 21
201.1236786061457
 31
0.0
  0
LINE
  5
41A
330
75
100
AcDbEntity
  8
Sichtbar (ISO)
100
AcDbLine
 10
740.2316586195523
 20
206.1236786061457
 30
0.0
 11
730.4161690691349
 21
206.1236786061457
 31
0.0
  0
LINE
  5
41B
330
75
100
AcDbEntity
  8
Sichtbar (ISO)
100
AcDbLine
 10
706.2316586195236
 20
206.1236786061454
 30
0.0
 11
704.5733462243446
 21
206.1236786061454
 31
0.0
  0
LINE
  5
41C
330
75
100
AcDbEntity
  8
Sichtbar (ISO)
100
AcDbLine
 10
707.8899710147031
 20
206.1236786061454
 30
0.0
 11
706.2316586195236
 21
206.1236786061454
 31
0.0
  0
LINE
  5
41D
330
75
100
AcDbEntity
  8
Sichtbar (ISO)
100
AcDbLine
 10
685.2316586195288
 20
186.1236786061454
 30
0.0
 11
709.2316586195289
 21
186.1236786061454
 31
0.0
  0
ARC
  5
41E
330
75
100
AcDbEntity
  8
Sichtbar (ISO)
100
AcDbCircle
 10
697.2316586195289
 20
170.1236786061454
 30
0.0
 40
20.00000000000001
100
AcDbArc
 50
126.869897645844
 51
53.13010235415588
  0
ELLIPSE
  5
41F
330
75
100
AcDbEntity
  8
Sichtbar (ISO)
100
AcDbEllipse
 10
716.3646096075162
 20
253.5236786061458
 30
0.0
 11
0.0000000000000003
 21
1.999999999999998
 31
0.0
210
0.0
220
0.0
230
1.0
 40
0.8660254037847362
 41
0.0
 42
1.570796326794896
  0
ELLIPSE
  5
420
330
75
100
AcDbEntity
  8
Sichtbar (ISO)
100
AcDbEllipse
 10
716.3646096075162
 20
227.5236786061459
 30
0.0
 11
-0.0000000000000056
 21
-2.000000000000006
 31
0.0
210
0.0
220
0.0
230
1.0
 40
0.8660254037847359
 41
4.71238898038471
 42
6.28318530717959
  0
ELLIPSE
  5
421
330
75
100
AcDbEntity
  8
Sichtbar (ISO)
100
AcDbEllipse
 10
738.8812701059194
 20
227.5236786061458
 30
0.0
 11
0.0000000000000086
 21
-1.999999999999991
 31
0.0
210
0.0
220
0.0
230
1.0
 40
0.8660254037847362
 41
0.0
 42
1.570796326794893
  0
ELLIPSE
  5
422
330
75
100
AcDbEntity
  8
Sichtbar (ISO)
100
AcDbEllipse
 10
738.8812701059194
 20
253.5236786061458
 30
0.0
 11
-0.0000000000000044
 21
1.99999999999999
 31
0.0
210
0.0
220
0.0
230
1.0
 40
0.8660254037847364
 41
4.71238898038467
 42
6.28318530717958
  0
LINE
  5
423
330
75
100
AcDbEntity
  8
Sichtbar (ISO)
100
AcDbLine
 10
716.3646096075162
 20
255.5236786061458
 30
0.0
 11
716.3346096075163
 21
255.5236786061459
 31
0.0
  0
ELLIPSE
  5
424
330
75
100
AcDbEntity
  8
Sichtbar (ISO)
100
AcDbEllipse
 10
716.3346096075163
 20
253.5236786061458
 30
0.0
 11
-0.0000000000000004
 21
2.000000000000001
 31
0.0
210
0.0
220
0.0
230
1.0
 40
0.8660254037847366
 41
0.0
 42
1.570796326794896
  0
LINE
  5
425
330
75
100
AcDbEntity
  8
Sichtbar schmal (ISO)
100
AcDbLine
 10
714.6025587999469
 20
253.5236786061458
 30
0.0
 11
714.6325587999467
 21
253.5236786061458
 31
0.0
  0
LINE
  5
426
330
75
100
AcDbEntity
  8
Sichtbar schmal (ISO)
100
AcDbLine
 10
714.6325587999467
 20
227.5236786061459
 30
0.0
 11
714.6025587999469
 21
227.5236786061459
 31
0.0
  0
LINE
  5
427
330
75
100
AcDbEntity
  8
Sichtbar (ISO)
100
AcDbLine
 10
716.3346096075163
 20
225.5236786061459
 30
0.0
 11
716.3646096075162
 21
225.5236786061458
 31
0.0
  0
ELLIPSE
  5
428
330
75
100
AcDbEntity
  8
Sichtbar (ISO)
100
AcDbEllipse
 10
716.3346096075163
 20
227.5236786061459
 30
0.0
 11
0.0000000000000111
 21
-1.999999999999992
 31
0.0
210
0.0
220
0.0
230
1.0
 40
0.8660254037847334
 41
4.712388980384666
 42
6.283185307179582
  0
LINE
  5
429
330
75
100
AcDbEntity
  8
Sichtbar (ISO)
100
AcDbLine
 10
714.6325587999467
 20
227.5236786061459
 30
0.0
 11
714.6325587999467
 21
253.5236786061458
 31
0.0
  0
LINE
  5
42A
330
75
100
AcDbEntity
  8
Sichtbar (ISO)
100
AcDbLine
 10
738.8812701059194
 20
225.5236786061458
 30
0.0
 11
716.3646096075162
 21
225.5236786061458
 31
0.0
  0
LINE
  5
42B
330
75
100
AcDbEntity
  8
Sichtbar (ISO)
100
AcDbLine
 10
740.6133209134889
 20
253.5236786061458
 30
0.0
 11
740.6133209134889
 21
227.5236786061459
 31
0.0
  0
LINE
  5
42C
330
75
100
AcDbEntity
  8
Sichtbar (ISO)
100
AcDbLine
 10
716.3646096075162
 20
255.5236786061458
 30
0.0
 11
738.8812701059194
 21
255.5236786061458
 31
0.0
  0
LINE
  5
42D
330
75
100
AcDbEntity
  8
Sichtbar (ISO)
100
AcDbLine
 10
714.6025587999469
 20
227.5236786061459
 30
0.0
 11
714.6025587999469
 21
253.5236786061458
 31
0.0
  0
LINE
  5
42E
330
75
100
AcDbEntity
  8
Sichtbar (ISO)
100
AcDbLine
 10
745.7316586195166
 20
215.5236786061458
 30
0.0
 11
745.7316586195166
 21
265.0236786061458
 31
0.0
  0
LINE
  5
42F
330
75
100
AcDbEntity
  8
Sichtbar (ISO)
100
AcDbLine
 10
710.7316586195047
 20
265.0236786061458
 30
0.0
 11
675.7316586195166
 21
265.0236786061458
 31
0.0
  0
LINE
  5
430
330
75
100
AcDbEntity
  8
Sichtbar (ISO)
100
AcDbLine
 10
745.7316586195166
 20
265.0236786061458
 30
0.0
 11
710.7316586195047
 21
265.0236786061458
 31
0.0
  0
LINE
  5
431
330
75
100
AcDbEntity
  8
Sichtbar (ISO)
100
AcDbLine
 10
675.7316586195166
 20
215.5236786061458
 30
0.0
 11
675.7316586195166
 21
265.0236786061458
 31
0.0
  0
LINE
  5
432
330
75
100
AcDbEntity
  8
Sichtbar (ISO)
100
AcDbLine
 10
710.7316586195047
 20
215.5236786061458
 30
0.0
 11
710.7316586195047
 21
265.0236786061458
 31
0.0
  0
LINE
  5
433
330
75
100
AcDbEntity
  8
Sichtbar (ISO)
100
AcDbLine
 10
745.7316586195166
 20
215.5236786061458
 30
0.0
 11
710.7316586195047
 21
215.5236786061458
 31
0.0
  0
LINE
  5
434
330
75
100
AcDbEntity
  8
Sichtbar (ISO)
100
AcDbLine
 10
710.7316586195047
 20
215.5236786061458
 30
0.0
 11
675.7316586195166
 21
215.5236786061458
 31
0.0
  0
LINE
  5
435
330
75
100
AcDbEntity
  8
Sichtbar (ISO)
100
AcDbLine
 10
713.7316586195287
 20
538.623678606146
 30
0.0
 11
680.7316586195286
 21
538.623678606146
 31
0.0
  0
LINE
  5
436
330
75
100
AcDbEntity
  8
Sichtbar (ISO)
100
AcDbLine
 10
681.2316586195287
 20
539.1236786061462
 30
0.0
 11
713.2316586195286
 21
539.1236786061462
 31
0.0
  0
LINE
  5
437
330
75
100
AcDbEntity
  8
Sichtbar (ISO)
100
AcDbLine
 10
713.2316586195287
 20
539.1236786061462
 30
0.0
 11
713.7316586195287
 21
538.623678606146
 31
0.0
  0
LINE
  5
438
330
75
100
AcDbEntity
  8
Sichtbar (ISO)
100
AcDbLine
 10
681.2316586195287
 20
539.1236786061462
 30
0.0
 11
680.7316586195286
 21
538.623678606146
 31
0.0
  0
POLYLINE
  5
439
330
75
100
AcDbEntity
  8
Sichtbar (ISO)
100
AcDb2dPolyline
 66
     1
 10
0.0
 20
0.0
 30
0.0
 70
   128
  0
VERTEX
  5
43A
330
439
100
AcDbEntity
  8
Sichtbar (ISO)
100
AcDbVertex
100
AcDb2dVertex
 10
703.2316585802073
 20
203.6236789876155
 30
0.0
  0
VERTEX
  5
43B
330
439
100
AcDbEntity
  8
Sichtbar (ISO)
100
AcDbVertex
100
AcDb2dVertex
 10
703.3658119462962
 20
202.7379158192805
 30
0.0
  0
VERTEX
  5
43D
330
439
100
AcDbEntity
  8
Sichtbar (ISO)
100
AcDbVertex
100
AcDb2dVertex
 10
703.756182434463
 20
201.9303730183772
 30
0.0
  0
VERTEX
  5
43E
330
439
100
AcDbEntity
  8
Sichtbar (ISO)
100
AcDbVertex
100
AcDb2dVertex
 10
704.3195405029294
 20
201.3128116780452
 30
0.0
  0
VERTEX
  5
43F
330
439
100
AcDbEntity
  8
Sichtbar (ISO)
100
AcDbVertex
100
AcDb2dVertex
 10
705.0127943777084
 20
200.8825090581111
 30
0.0
  0
VERTEX
  5
440
330
439
100
AcDbEntity
  8
Sichtbar (ISO)
100
AcDbVertex
100
AcDb2dVertex
 10
705.7584338807109
 20
200.6619384938411
 30
0.0
  0
VERTEX
  5
441
330
439
100
AcDbEntity
  8
Sichtbar (ISO)
100
AcDbVertex
100
AcDb2dVertex
 10
706.4684581183439
 20
200.6332853490047
 30
0.0
  0
VERTEX
  5
442
330
439
100
AcDbEntity
  8
Sichtbar (ISO)
100
AcDbVertex
100
AcDb2dVertex
 10
707.1550538562783
 20
200.7697513753108
 30
0.0
  0
VERTEX
  5
443
330
439
100
AcDbEntity
  8
Sichtbar (ISO)
100
AcDbVertex
100
AcDb2dVertex
 10
707.7918901466382
 20
201.0615804845027
 30
0.0
  0
VERTEX
  5
444
330
439
100
AcDbEntity
  8
Sichtbar (ISO)
100
AcDbVertex
100
AcDb2dVertex
 10
708.339305611755
 20
201.4889410191707
 30
0.0
  0
VERTEX
  5
445
330
439
100
AcDbEntity
  8
Sichtbar (ISO)
100
AcDbVertex
100
AcDb2dVertex
 10
708.7838777326603
 20
202.0477703267268
 30
0.0
  0
VERTEX
  5
446
330
439
100
AcDbEntity
  8
Sichtbar (ISO)
100
AcDbVertex
100
AcDb2dVertex
 10
709.1099589489958
 20
202.7779796773128
 30
0.0
  0
VERTEX
  5
447
330
439
100
AcDbEntity
  8
Sichtbar (ISO)
100
AcDbVertex
100
AcDb2dVertex
 10
709.2316586696171
 20
203.6236789876155
 30
0.0
  0
VERTEX
  5
448
330
439
100
AcDbEntity
  8
Sichtbar (ISO)
100
AcDbVertex
100
AcDb2dVertex
 10
709.1099589489958
 20
204.4693735295467
 30
0.0
  0
VERTEX
  5
449
330
439
100
AcDbEntity
  8
Sichtbar (ISO)
100
AcDbVertex
100
AcDb2dVertex
 10
708.7838777326603
 20
205.1995876485042
 30
0.0
  0
VERTEX
  5
44A
330
439
100
AcDbEntity
  8
Sichtbar (ISO)
100
AcDbVertex
100
AcDb2dVertex
 10
708.339305611755
 20
205.7584169560603
 30
0.0
  0
VERTEX
  5
44B
330
439
100
AcDbEntity
  8
Sichtbar (ISO)
100
AcDbVertex
100
AcDb2dVertex
 10
707.7918901466382
 20
206.1857774907283
 30
0.0
  0
VERTEX
  5
44C
330
439
100
AcDbEntity
  8
Sichtbar (ISO)
100
AcDbVertex
100
AcDb2dVertex
 10
707.1550538562783
 20
206.4776065999202
 30
0.0
  0
VERTEX
  5
44D
330
439
100
AcDbEntity
  8
Sichtbar (ISO)
100
AcDbVertex
100
AcDb2dVertex
 10
706.4684581183439
 20
206.6140726262263
 30
0.0
  0
VERTEX
  5
44E
330
439
100
AcDbEntity
  8
Sichtbar (ISO)
100
AcDbVertex
100
AcDb2dVertex
 10
705.7584338807109
 20
206.5854194813899
 30
0.0
  0
VERTEX
  5
44F
330
439
100
AcDbEntity
  8
Sichtbar (ISO)
100
AcDbVertex
100
AcDb2dVertex
 10
705.0127943777084
 20
206.3648489171199
 30
0.0
  0
VERTEX
  5
450
330
439
100
AcDbEntity
  8
Sichtbar (ISO)
100
AcDbVertex
100
AcDb2dVertex
 10
704.3195405029294
 20
205.9345462971858
 30
0.0
  0
VERTEX
  5
451
330
439
100
AcDbEntity
  8
Sichtbar (ISO)
100
AcDbVertex
100
AcDb2dVertex
 10
703.756182434463
 20
205.3169849568538
 30
0.0
  0
VERTEX
  5
452
330
439
100
AcDbEntity
  8
Sichtbar (ISO)
100
AcDbVertex
100
AcDb2dVertex
 10
703.3658119462962
 20
204.5094421559505
 30
0.0
  0
VERTEX
  5
453
330
439
100
AcDbEntity
  8
Sichtbar (ISO)
100
AcDbVertex
100
AcDb2dVertex
 10
703.2316585802073
 20
203.6236789876155
 30
0.0
  0
SEQEND
  5
43C
330
439
100
AcDbEntity
  8
Sichtbar (ISO)
  0
LINE
  5
454
330
75
100
AcDbEntity
  8
Sichtbar (ISO)
100
AcDbLine
 10
682.4816586195287
 20
196.6236786061458
 30
0.0
 11
711.9816586195286
 21
196.6236786061458
 31
0.0
  0
LINE
  5
455
330
75
100
AcDbEntity
  8
Sichtbar (ISO)
100
AcDbLine
 10
682.4816586195287
 20
196.6236786061458
 30
0.0
 11
682.4816586195287
 21
215.5236786061458
 31
0.0
  0
LINE
  5
456
330
75
100
AcDbEntity
  8
Sichtbar (ISO)
100
AcDbLine
 10
711.9816586195286
 20
196.6236786061458
 30
0.0
 11
711.9816586195286
 21
201.1236786061457
 31
0.0
  0
LINE
  5
457
330
75
100
AcDbEntity
  8
Sichtbar (ISO)
100
AcDbLine
 10
711.9816586195286
 20
206.1236786061457
 30
0.0
 11
711.9816586195286
 21
215.5236786061458
 31
0.0
  0
LINE
  5
458
330
75
100
AcDbEntity
  8
Sichtbar schmal (ISO)
100
AcDbLine
 10
675.9266586195285
 20
266.2236786061458
 30
0.0
 11
735.5366586195287
 21
266.2236786061458
 31
0.0
  0
LINE
  5
459
330
75
100
AcDbEntity
  8
Sichtbar (ISO)
100
AcDbLine
 10
675.7316597723082
 20
265.5679538899593
 30
0.0
 11
675.7316597723034
 21
265.0236788445643
 31
0.0
  0
ARC
  5
45A
330
75
100
AcDbEntity
  8
Sichtbar (ISO)
100
AcDbCircle
 10
674.7266586195286
 20
266.2236786061458
 30
0.0
 40
1.199999999999999
100
AcDbArc
 50
326.877059792256
 51
0.0
  0
ARC
  5
45B
330
75
100
AcDbEntity
  8
Sichtbar (ISO)
100
AcDbCircle
 10
736.7366586195287
 20
266.2236786061458
 30
0.0
 40
1.199999999999999
100
AcDbArc
 50
180.0
 51
270.0
  0
LINE
  5
45C
330
75
100
AcDbEntity
  8
Sichtbar (ISO)
100
AcDbLine
 10
735.5366586195287
 20
290.9236786061458
 30
0.0
 11
675.9266586195285
 21
290.9236786061458
 31
0.0
  0
LINE
  5
45D
330
75
100
AcDbEntity
  8
Sichtbar (ISO)
100
AcDbLine
 10
677.5266586195287
 20
292.5236786061458
 30
0.0
 11
733.9366586195285
 21
292.5236786061458
 31
0.0
  0
LINE
  5
45E
330
75
100
AcDbEntity
  8
Sichtbar (ISO)
100
AcDbLine
 10
733.9366586195287
 20
292.5236786061458
 30
0.0
 11
735.5366586195287
 21
290.9236786061458
 31
0.0
  0
LINE
  5
45F
330
75
100
AcDbEntity
  8
Sichtbar (ISO)
100
AcDbLine
 10
677.5266586195287
 20
292.5236786061458
 30
0.0
 11
675.9266586195287
 21
290.9236786061458
 31
0.0
  0
LINE
  5
460
330
75
100
AcDbEntity
  8
Sichtbar (ISO)
100
AcDbLine
 10
701.2316586195288
 20
196.6236786061458
 30
0.0
 11
701.2316586195288
 21
186.1236786061454
 31
0.0
  0
LINE
  5
461
330
75
100
AcDbEntity
  8
Sichtbar (ISO)
100
AcDbLine
 10
693.2316586195288
 20
196.6236786061458
 30
0.0
 11
693.2316586195288
 21
186.1236786061454
 31
0.0
  0
LINE
  5
462
330
75
100
AcDbEntity
  8
Sichtbar (ISO)
100
AcDbLine
 10
680.7316586195286
 20
292.5236786061458
 30
0.0
 11
680.7316586195286
 21
538.623678606146
 31
0.0
  0
LINE
  5
463
330
75
100
AcDbEntity
  8
Sichtbar (ISO)
100
AcDbLine
 10
713.7316586195287
 20
292.5236786061458
 30
0.0
 11
713.7316586195287
 21
538.623678606146
 31
0.0
  0
LINE
  5
464
330
75
100
AcDbEntity
  8
Sichtbar (ISO)
100
AcDbLine
 10
675.9266586195287
 20
266.2236786061458
 30
0.0
 11
675.9266586195287
 21
290.9236786061458
 31
0.0
  0
LINE
  5
465
330
75
100
AcDbEntity
  8
Sichtbar (ISO)
100
AcDbLine
 10
735.5366586195287
 20
266.2236786061458
 30
0.0
 11
735.5366586195287
 21
290.9236786061458
 31
0.0
  0
LINE
  5
466
330
75
100
AcDbEntity
  8
Sichtbar schmal (ISO)
100
AcDbLine
 10
700.4876586195289
 20
186.1236786061454
 30
0.0
 11
700.4876586195289
 21
196.6236786061458
 31
0.0
  0
LINE
  5
467
330
75
100
AcDbEntity
  8
Sichtbar schmal (ISO)
100
AcDbLine
 10
693.9756586195288
 20
196.6236786061458
 30
0.0
 11
693.9756586195288
 21
186.1236786061454
 31
0.0
  0
LINE
  5
468
330
75
100
AcDbEntity
  8
Sichtbar schmal (ISO)
100
AcDbLine
 10
677.4056586195285
 20
292.4026786061458
 30
0.0
 11
677.4056586195285
 21
268.5236786061458
 31
0.0
  0
LINE
  5
469
330
75
100
AcDbEntity
  8
Sichtbar schmal (ISO)
100
AcDbLine
 10
734.0576586195287
 20
268.5236786061458
 30
0.0
 11
734.0576586195287
 21
292.4026786061458
 31
0.0
  0
LINE
  5
46A
330
75
100
AcDbEntity
  8
Sichtbar (ISO)
100
AcDbLine
 10
735.5366586195287
 20
268.5236786061458
 30
0.0
 11
675.9266586195285
 21
268.5236786061458
 31
0.0
  0
ENDSEC
  0
SECTION
  2
OBJECTS
  0
DICTIONARY
  5
C
330
0
100
AcDbDictionary
281
     1
  3
ACAD_COLOR
350
6B
  3
ACAD_GROUP
350
D
  3
ACAD_LAYOUT
350
6A
  3
ACAD_MATERIAL
350
10
  3
ACAD_MLEADERSTYLE
350
6E
  3
ACAD_MLINESTYLE
350
67
  3
ACAD_PLOTSETTINGS
350
69
  3
ACAD_PLOTSTYLENAME
350
E
  3
ACAD_SCALELIST
350
3A
  3
ACAD_TABLESTYLE
350
6C
  3
ACAD_VISUALSTYLE
350
29
  3
ACDB_RECOMPOSE_DATA
350
476
  3
AcDbVariableDictionary
350
46B
  0
DICTIONARY
  5
472
330
169
100
AcDbDictionary
280
     1
281
     1
  3
ACAD_MLATT
360
473
  0
DICTIONARY
  5
474
330
16B
100
AcDbDictionary
280
     1
281
     1
  3
ACAD_MLATT
360
475
  0
DICTIONARY
  5
6B
102
{ACAD_REACTORS
330
C
102
}
330
C
100
AcDbDictionary
281
     1
  0
DICTIONARY
  5
D
102
{ACAD_REACTORS
330
C
102
}
330
C
100
AcDbDictionary
281
     1
  0
DICTIONARY
  5
6A
102
{ACAD_REACTORS
330
C
102
}
330
C
100
AcDbDictionary
281
     1
  3
Layout1
350
74
  3
Layout2
350
7C
  3
Model
350
78
  0
DICTIONARY
  5
10
102
{ACAD_REACTORS
330
C
102
}
330
C
100
AcDbDictionary
281
     1
  3
ByBlock
350
19
  3
ByLayer
350
11
  3
Global
350
21
  0
DICTIONARY
  5
6E
102
{ACAD_REACTORS
330
C
102
}
330
C
100
AcDbDictionary
281
     1
  3
Standard
350
6F
  0
DICTIONARY
  5
67
102
{ACAD_REACTORS
330
C
102
}
330
C
100
AcDbDictionary
281
     1
  3
Standard
350
68
  0
DICTIONARY
  5
69
102
{ACAD_REACTORS
330
C
102
}
330
C
100
AcDbDictionary
281
     1
  0
ACDBDICTIONARYWDFLT
  5
E
102
{ACAD_REACTORS
330
C
102
}
330
C
100
AcDbDictionary
281
     1
  3
Normal
350
F
100
AcDbDictionaryWithDefault
340
F
  0
DICTIONARY
  5
3A
102
{ACAD_REACTORS
330
C
102
}
330
C
100
AcDbDictionary
281
     1
  3
A0
350
3B
  3
A1
350
3C
  3
A2
350
3D
  3
A3
350
3E
  3
A4
350
3F
  3
A5
350
40
  3
A6
350
41
  3
A7
350
42
  3
A8
350
43
  3
A9
350
44
  3
B0
350
45
  3
B1
350
46
  3
B2
350
47
  3
B3
350
48
  3
B4
350
49
  3
B5
350
4A
  3
B6
350
4B
  3
B7
350
4C
  3
B8
350
4D
  3
B9
350
4E
  3
C0
350
4F
  3
C1
350
50
  3
C2
350
51
  3
C3
350
52
  3
C4
350
53
  3
C5
350
54
  3
C6
350
55
  3
C7
350
56
  3
C8
350
57
  3
C9
350
58
  3
D0
350
59
  3
D1
350
5A
  3
D2
350
5B
  0
DICTIONARY
  5
6C
102
{ACAD_REACTORS
330
C
102
}
330
C
100
AcDbDictionary
281
     1
  3
Standard
350
6D
  0
DICTIONARY
  5
29
102
{ACAD_REACTORS
330
C
102
}
330
C
100
AcDbDictionary
281
     1
  3
2dWireframe
350
2F
  3
3D Hidden
350
31
  3
3dWireframe
350
30
  3
Basic
350
2E
  3
Brighten
350
35
  3
ColorChange
350
39
  3
Conceptual
350
32
  3
Dim
350
34
  3
Facepattern
350
38
  3
Flat
350
2A
  3
FlatWithEdges
350
2B
  3
Gouraud
350
2C
  3
GouraudWithEdges
350
2D
  3
Linepattern
350
37
  3
Realistic
350
33
  3
Thicken
350
36
  0
XRECORD
  5
476
102
{ACAD_REACTORS
330
C
102
}
330
C
100
AcDbXrecord
280
     1
 90
        1
330
6D
330
169
330
16B
  0
DICTIONARY
  5
46B
102
{ACAD_REACTORS
330
C
102
}
330
C
100
AcDbDictionary
281
     1
  3
CANNOSCALE
350
46E
  3
CMLEADERSTYLE
350
46D
  3
CTABLESTYLE
350
46C
  0
XRECORD
  5
473
102
{ACAD_REACTORS
330
472
102
}
330
472
100
AcDbXrecord
280
     1
 70
     4
 70
     0
 70
     0
 40
1.0
  2
TolWinkel_Fein
  1
Embedded Object
 10
-98.35000000000002
 20
4.499999999999992
 30
0.0
 40
2.000000029802322
 41
0.0
 46
0.0
 71
     4
 72
     5
  1
\W0.9000;
  7
TolListe_12-Arial
 73
     1
 44
1.0
  0
XRECORD
  5
475
102
{ACAD_REACTORS
330
474
102
}
330
474
100
AcDbXrecord
280
     1
 70
     4
 70
     0
 70
     0
 40
1.0
  2
TolWinkel_Grob
  1
Embedded Object
 10
-98.35000000000002
 20
1.500000000000003
 30
0.0
 40
2.000000029802322
 41
0.0
 46
0.0
 71
     4
 72
     5
  1
\W1.1000;X
  7
TolListe_12-Arial
 73
     1
 44
1.0
  0
LAYOUT
  5
74
102
{ACAD_REACTORS
330
6A
102
}
330
6A
100
AcDbPlotSettings
  1

  2

  4

  6

 40
0.0
 41
0.0
 42
0.0
 43
0.0
 44
0.0
 45
0.0
 46
0.0
 47
0.0
 48
0.0
 49
0.0
140
0.0
141
0.0
142
1.0
143
1.0
 70
   688
 72
     0
 73
     0
 74
     5
  7

 75
    16
147
1.0
 76
     0
 77
     2
 78
   300
148
0.0
149
0.0
100
AcDbLayout
  1
Layout1
 70
     1
 71
     1
 10
0.0
 20
0.0
 11
12.0
 21
9.0
 12
0.0
 22
0.0
 32
0.0
 14
0.0
 24
0.0
 34
0.0
 15
0.0
 25
0.0
 35
0.0
146
0.0
 13
0.0
 23
0.0
 33
0.0
 16
1.0
 26
0.0
 36
0.0
 17
0.0
 27
1.0
 37
0.0
 76
     0
330
71
  0
LAYOUT
  5
7C
102
{ACAD_REACTORS
330
6A
102
}
330
6A
100
AcDbPlotSettings
  1

  2

  4

  6

 40
0.0
 41
0.0
 42
0.0
 43
0.0
 44
0.0
 45
0.0
 46
0.0
 47
0.0
 48
0.0
 49
0.0
140
0.0
141
0.0
142
1.0
143
1.0
 70
   688
 72
     0
 73
     0
 74
     5
  7

 75
    16
147
1.0
 76
     0
 77
     2
 78
   300
148
0.0
149
0.0
100
AcDbLayout
  1
Layout2
 70
     1
 71
     2
 10
0.0
 20
0.0
 11
12.0
 21
9.0
 12
0.0
 22
0.0
 32
0.0
 14
0.0
 24
0.0
 34
0.0
 15
0.0
 25
0.0
 35
0.0
146
0.0
 13
0.0
 23
0.0
 33
0.0
 16
1.0
 26
0.0
 36
0.0
 17
0.0
 27
1.0
 37
0.0
 76
     0
330
79
  0
LAYOUT
  5
78
102
{ACAD_REACTORS
330
6A
102
}
330
6A
100
AcDbPlotSettings
  1

  2

  4

  6

 40
0.0
 41
0.0
 42
0.0
 43
0.0
 44
0.0
 45
0.0
 46
0.0
 47
0.0
 48
0.0
 49
0.0
140
0.0
141
0.0
142
1.0
143
1.0
 70
  1712
 72
     0
 73
     0
 74
     0
  7

 75
     0
147
1.0
 76
     0
 77
     2
 78
   300
148
0.0
149
0.0
100
AcDbLayout
  1
Model
 70
     1
 71
     0
 10
0.0
 20
0.0
 11
12.0
 21
9.0
 12
0.0
 22
0.0
 32
0.0
 14
0.0
 24
0.0
 34
0.0
 15
0.0
 25
0.0
 35
0.0
146
0.0
 13
0.0
 23
0.0
 33
0.0
 16
1.0
 26
0.0
 36
0.0
 17
0.0
 27
1.0
 37
0.0
 76
     0
330
75
  0
MATERIAL
  5
19
102
{ACAD_XDICTIONARY
360
1A
102
}
102
{ACAD_REACTORS
330
10
102
}
330
10
100
AcDbMaterial
  1
ByBlock
 72
     0
 43
0.0208333333333333
 43
0.0
 43
0.0
 43
0.0
 43
0.0
 43
0.0208333333333333
 43
0.0
 43
0.0
 43
0.0
 43
0.0
 43
1.0
 43
0.0
 43
0.0
 43
0.0
 43
0.0
 43
1.0
 77
     0
 47
0.0208333333333333
 47
0.0
 47
0.0
 47
0.0
 47
0.0
 47
0.0208333333333333
 47
0.0
 47
0.0
 47
0.0
 47
0.0
 47
1.0
 47
0.0
 47
0.0
 47
0.0
 47
0.0
 47
1.0
171
     0
 49
0.0208333333333333
 49
0.0
 49
0.0
 49
0.0
 49
0.0
 49
0.0208333333333333
 49
0.0
 49
0.0
 49
0.0
 49
0.0
 49
1.0
 49
0.0
 49
0.0
 49
0.0
 49
0.0
 49
1.0
175
     0
142
0.0208333333333333
142
0.0
142
0.0
142
0.0
142
0.0
142
0.0208333333333333
142
0.0
142
0.0
142
0.0
142
0.0
142
1.0
142
0.0
142
0.0
142
0.0
142
0.0
142
1.0
179
     0
144
0.0208333333333333
144
0.0
144
0.0
144
0.0
144
0.0
144
0.0208333333333333
144
0.0
144
0.0
144
0.0
144
0.0
144
1.0
144
0.0
144
0.0
144
0.0
144
0.0
144
1.0
147
0.0208333333333333
147
0.0
147
0.0
147
0.0
147
0.0
147
0.0208333333333333
147
0.0
147
0.0
147
0.0
147
0.0
147
1.0
147
0.0
147
0.0
147
0.0
147
0.0
147
1.0
  0
MATERIAL
  5
11
102
{ACAD_XDICTIONARY
360
12
102
}
102
{ACAD_REACTORS
330
10
102
}
330
10
100
AcDbMaterial
  1
ByLayer
 72
     0
 43
0.0208333333333333
 43
0.0
 43
0.0
 43
0.0
 43
0.0
 43
0.0208333333333333
 43
0.0
 43
0.0
 43
0.0
 43
0.0
 43
1.0
 43
0.0
 43
0.0
 43
0.0
 43
0.0
 43
1.0
 77
     0
 47
0.0208333333333333
 47
0.0
 47
0.0
 47
0.0
 47
0.0
 47
0.0208333333333333
 47
0.0
 47
0.0
 47
0.0
 47
0.0
 47
1.0
 47
0.0
 47
0.0
 47
0.0
 47
0.0
 47
1.0
171
     0
 49
0.0208333333333333
 49
0.0
 49
0.0
 49
0.0
 49
0.0
 49
0.0208333333333333
 49
0.0
 49
0.0
 49
0.0
 49
0.0
 49
1.0
 49
0.0
 49
0.0
 49
0.0
 49
0.0
 49
1.0
175
     0
142
0.0208333333333333
142
0.0
142
0.0
142
0.0
142
0.0
142
0.0208333333333333
142
0.0
142
0.0
142
0.0
142
0.0
142
1.0
142
0.0
142
0.0
142
0.0
142
0.0
142
1.0
179
     0
144
0.0208333333333333
144
0.0
144
0.0
144
0.0
144
0.0
144
0.0208333333333333
144
0.0
144
0.0
144
0.0
144
0.0
144
1.0
144
0.0
144
0.0
144
0.0
144
0.0
144
1.0
147
0.0208333333333333
147
0.0
147
0.0
147
0.0
147
0.0
147
0.0208333333333333
147
0.0
147
0.0
147
0.0
147
0.0
147
1.0
147
0.0
147
0.0
147
0.0
147
0.0
147
1.0
  0
MATERIAL
  5
21
102
{ACAD_XDICTIONARY
360
22
102
}
102
{ACAD_REACTORS
330
10
102
}
330
10
100
AcDbMaterial
  1
Global
 72
     0
 43
0.0208333333333333
 43
0.0
 43
0.0
 43
0.0
 43
0.0
 43
0.0208333333333333
 43
0.0
 43
0.0
 43
0.0
 43
0.0
 43
1.0
 43
0.0
 43
0.0
 43
0.0
 43
0.0
 43
1.0
 77
     0
 47
0.0208333333333333
 47
0.0
 47
0.0
 47
0.0
 47
0.0
 47
0.0208333333333333
 47
0.0
 47
0.0
 47
0.0
 47
0.0
 47
1.0
 47
0.0
 47
0.0
 47
0.0
 47
0.0
 47
1.0
171
     0
 49
0.0208333333333333
 49
0.0
 49
0.0
 49
0.0
 49
0.0
 49
0.0208333333333333
 49
0.0
 49
0.0
 49
0.0
 49
0.0
 49
1.0
 49
0.0
 49
0.0
 49
0.0
 49
0.0
 49
1.0
175
     0
142
0.0208333333333333
142
0.0
142
0.0
142
0.0
142
0.0
142
0.0208333333333333
142
0.0
142
0.0
142
0.0
142
0.0
142
1.0
142
0.0
142
0.0
142
0.0
142
0.0
142
1.0
179
     0
144
0.0208333333333333
144
0.0
144
0.0
144
0.0
144
0.0
144
0.0208333333333333
144
0.0
144
0.0
144
0.0
144
0.0
144
1.0
144
0.0
144
0.0
144
0.0
144
0.0
144
1.0
147
0.0208333333333333
147
0.0
147
0.0
147
0.0
147
0.0
147
0.0208333333333333
147
0.0
147
0.0
147
0.0
147
0.0
147
1.0
147
0.0
147
0.0
147
0.0
147
0.0
147
1.0
  0
MLEADERSTYLE
  5
6F
102
{ACAD_REACTORS
330
6E
102
}
330
6E
100
AcDbMLeaderStyle
170
     2
171
     1
172
     0
 90
        2
 40
0.0
 41
0.0
173
     1
 91
-1056964608
340
63
 92
       -2
290
     1
 42
0.09
291
     1
 43
0.36
  3
Standard
 44
0.18
300

342
5D
174
     1
178
     6
175
     1
176
     0
 93
-1056964608
 45
0.18
292
     0
297
     0
 46
0.18
 94
-1056964608
 47
1.0
 49
1.0
140
1.0
293
     1
141
0.0
294
     1
177
     0
142
1.0
295
     1
296
     0
143
0.125
1001
ACAD_MLEADERVER
1070
     2
  0
MLINESTYLE
  5
68
102
{ACAD_REACTORS
330
67
102
}
330
67
100
AcDbMlineStyle
  2
STANDARD
 70
     0
  3

 62
   256
 51
90.0
 52
90.0
 71
     2
 49
0.5
 62
   256
  6
BYLAYER
 49
-0.5
 62
   256
  6
BYLAYER
  0
ACDBPLACEHOLDER
  5
F
102
{ACAD_REACTORS
330
E
102
}
330
E
  0
SCALE
  5
3B
102
{ACAD_REACTORS
330
3A
102
}
330
3A
100
AcDbScale
 70
     0
300
1:1
140
1.0
141
1.0
290
     1
  0
SCALE
  5
3C
102
{ACAD_REACTORS
330
3A
102
}
330
3A
100
AcDbScale
 70
     0
300
1:2
140
1.0
141
2.0
290
     0
  0
SCALE
  5
3D
102
{ACAD_REACTORS
330
3A
102
}
330
3A
100
AcDbScale
 70
     0
300
1:4
140
1.0
141
4.0
290
     0
  0
SCALE
  5
3E
102
{ACAD_REACTORS
330
3A
102
}
330
3A
100
AcDbScale
 70
     0
300
1:5
140
1.0
141
5.0
290
     0
  0
SCALE
  5
3F
102
{ACAD_REACTORS
330
3A
102
}
330
3A
100
AcDbScale
 70
     0
300
1:8
140
1.0
141
8.0
290
     0
  0
SCALE
  5
40
102
{ACAD_REACTORS
330
3A
102
}
330
3A
100
AcDbScale
 70
     0
300
1:10
140
1.0
141
10.0
290
     0
  0
SCALE
  5
41
102
{ACAD_REACTORS
330
3A
102
}
330
3A
100
AcDbScale
 70
     0
300
1:16
140
1.0
141
16.0
290
     0
  0
SCALE
  5
42
102
{ACAD_REACTORS
330
3A
102
}
330
3A
100
AcDbScale
 70
     0
300
1:20
140
1.0
141
20.0
290
     0
  0
SCALE
  5
43
102
{ACAD_REACTORS
330
3A
102
}
330
3A
100
AcDbScale
 70
     0
300
1:30
140
1.0
141
30.0
290
     0
  0
SCALE
  5
44
102
{ACAD_REACTORS
330
3A
102
}
330
3A
100
AcDbScale
 70
     0
300
1:40
140
1.0
141
40.0
290
     0
  0
SCALE
  5
45
102
{ACAD_REACTORS
330
3A
102
}
330
3A
100
AcDbScale
 70
     0
300
1:50
140
1.0
141
50.0
290
     0
  0
SCALE
  5
46
102
{ACAD_REACTORS
330
3A
102
}
330
3A
100
AcDbScale
 70
     0
300
1:100
140
1.0
141
100.0
290
     0
  0
SCALE
  5
47
102
{ACAD_REACTORS
330
3A
102
}
330
3A
100
AcDbScale
 70
     0
300
2:1
140
2.0
141
1.0
290
     0
  0
SCALE
  5
48
102
{ACAD_REACTORS
330
3A
102
}
330
3A
100
AcDbScale
 70
     0
300
4:1
140
4.0
141
1.0
290
     0
  0
SCALE
  5
49
102
{ACAD_REACTORS
330
3A
102
}
330
3A
100
AcDbScale
 70
     0
300
8:1
140
8.0
141
1.0
290
     0
  0
SCALE
  5
4A
102
{ACAD_REACTORS
330
3A
102
}
330
3A
100
AcDbScale
 70
     0
300
10:1
140
10.0
141
1.0
290
     0
  0
SCALE
  5
4B
102
{ACAD_REACTORS
330
3A
102
}
330
3A
100
AcDbScale
 70
     0
300
100:1
140
100.0
141
1.0
290
     0
  0
SCALE
  5
4C
102
{ACAD_REACTORS
330
3A
102
}
330
3A
100
AcDbScale
 70
     0
300
1/128" = 1'-0"
140
0.0078125
141
12.0
290
     0
  0
SCALE
  5
4D
102
{ACAD_REACTORS
330
3A
102
}
330
3A
100
AcDbScale
 70
     0
300
1/64" = 1'-0"
140
0.015625
141
12.0
290
     0
  0
SCALE
  5
4E
102
{ACAD_REACTORS
330
3A
102
}
330
3A
100
AcDbScale
 70
     0
300
1/32" = 1'-0"
140
0.03125
141
12.0
290
     0
  0
SCALE
  5
4F
102
{ACAD_REACTORS
330
3A
102
}
330
3A
100
AcDbScale
 70
     0
300
1/16" = 1'-0"
140
0.0625
141
12.0
290
     0
  0
SCALE
  5
50
102
{ACAD_REACTORS
330
3A
102
}
330
3A
100
AcDbScale
 70
     0
300
3/32" = 1'-0"
140
0.09375
141
12.0
290
     0
  0
SCALE
  5
51
102
{ACAD_REACTORS
330
3A
102
}
330
3A
100
AcDbScale
 70
     0
300
1/8" = 1'-0"
140
0.125
141
12.0
290
     0
  0
SCALE
  5
52
102
{ACAD_REACTORS
330
3A
102
}
330
3A
100
AcDbScale
 70
     0
300
3/16" = 1'-0"
140
0.1875
141
12.0
290
     0
  0
SCALE
  5
53
102
{ACAD_REACTORS
330
3A
102
}
330
3A
100
AcDbScale
 70
     0
300
1/4" = 1'-0"
140
0.25
141
12.0
290
     0
  0
SCALE
  5
54
102
{ACAD_REACTORS
330
3A
102
}
330
3A
100
AcDbScale
 70
     0
300
3/8" = 1'-0"
140
0.375
141
12.0
290
     0
  0
SCALE
  5
55
102
{ACAD_REACTORS
330
3A
102
}
330
3A
100
AcDbScale
 70
     0
300
1/2" = 1'-0"
140
0.5
141
12.0
290
     0
  0
SCALE
  5
56
102
{ACAD_REACTORS
330
3A
102
}
330
3A
100
AcDbScale
 70
     0
300
3/4" = 1'-0"
140
0.75
141
12.0
290
     0
  0
SCALE
  5
57
102
{ACAD_REACTORS
330
3A
102
}
330
3A
100
AcDbScale
 70
     0
300
1" = 1'-0"
140
1.0
141
12.0
290
     0
  0
SCALE
  5
58
102
{ACAD_REACTORS
330
3A
102
}
330
3A
100
AcDbScale
 70
     0
300
1-1/2" = 1'-0"
140
1.5
141
12.0
290
     0
  0
SCALE
  5
59
102
{ACAD_REACTORS
330
3A
102
}
330
3A
100
AcDbScale
 70
     0
300
3" = 1'-0"
140
3.0
141
12.0
290
     0
  0
SCALE
  5
5A
102
{ACAD_REACTORS
330
3A
102
}
330
3A
100
AcDbScale
 70
     0
300
6" = 1'-0"
140
6.0
141
12.0
290
     0
  0
SCALE
  5
5B
102
{ACAD_REACTORS
330
3A
102
}
330
3A
100
AcDbScale
 70
     0
300
1'-0" = 1'-0"
140
12.0
141
12.0
290
     0
  0
TABLESTYLE
  5
6D
102
{ACAD_XDICTIONARY
360
46F
102
}
102
{ACAD_REACTORS
330
6C
102
}
330
6C
100
AcDbTableStyle
  3
Standard
 70
     0
 71
     0
 40
0.06
 41
0.06
280
     0
281
     0
  7
Standard
140
0.18
170
     2
 62
     0
 63
     7
283
     0
 90
      512
 91
        0
  1

274
    -2
284
     1
 64
     0
275
    -2
285
     1
 65
     0
276
    -2
286
     1
 66
     0
277
    -2
287
     1
 67
     0
278
    -2
288
     1
 68
     0
279
    -2
289
     1
 69
     0
  7
Standard
140
0.25
170
     5
 62
     0
 63
     7
283
     0
 90
      512
 91
        0
  1

274
    -2
284
     1
 64
     0
275
    -2
285
     1
 65
     0
276
    -2
286
     1
 66
     0
277
    -2
287
     1
 67
     0
278
    -2
288
     1
 68
     0
279
    -2
289
     1
 69
     0
  7
Standard
140
0.18
170
     5
 62
     0
 63
     7
283
     0
 90
      512
 91
        0
  1

274
    -2
284
     1
 64
     0
275
    -2
285
     1
 65
     0
276
    -2
286
     1
 66
     0
277
    -2
287
     1
 67
     0
278
    -2
288
     1
 68
     0
279
    -2
289
     1
 69
     0
  0
VISUALSTYLE
  5
2F
102
{ACAD_REACTORS
330
29
102
}
330
29
100
AcDbVisualStyle
  2
2dWireframe
 70
     4
 71
     0
 72
     2
 73
     0
 90
        0
 40
-0.6
 41
-30.0
 62
     5
 63
     7
421
 16777215
 74
     1
 91
        4
 64
     7
 65
   257
 75
     1
175
     1
 42
1.0
 92
        0
 66
   257
 43
1.0
 76
     1
 77
     6
 78
     2
 67
     7
 79
     5
170
     0
171
     0
290
     0
174
     0
 93
        1
 44
0.0
173
     0
291
     0
 45
0.0
  0
VISUALSTYLE
  5
31
102
{ACAD_REACTORS
330
29
102
}
330
29
100
AcDbVisualStyle
  2
3D Hidden
 70
     6
 71
     1
 72
     2
 73
     2
 90
        0
 40
-0.6
 41
-30.0
 62
     5
 63
     7
421
 16777215
 74
     2
 91
        2
 64
     7
 65
   257
 75
     2
175
     1
 42
40.0
 92
        0
 66
   257
 43
1.0
 76
     1
 77
     6
 78
     2
 67
     7
 79
     3
170
     0
171
     0
290
     0
174
     0
 93
        1
 44
0.0
173
     0
291
     0
 45
0.0
  0
VISUALSTYLE
  5
30
102
{ACAD_REACTORS
330
29
102
}
330
29
100
AcDbVisualStyle
  2
3dWireframe
 70
     5
 71
     0
 72
     2
 73
     0
 90
        0
 40
-0.6
 41
-30.0
 62
     5
 63
     7
421
 16777215
 74
     1
 91
        4
 64
     7
 65
   257
 75
     1
175
     1
 42
1.0
 92
        0
 66
   257
 43
1.0
 76
     1
 77
     6
 78
     2
 67
     7
 79
     5
170
     0
171
     0
290
     0
174
     0
 93
        1
 44
0.0
173
     0
291
     0
 45
0.0
  0
VISUALSTYLE
  5
2E
102
{ACAD_REACTORS
330
29
102
}
330
29
100
AcDbVisualStyle
  2
Basic
 70
     7
 71
     1
 72
     0
 73
     1
 90
        0
 40
-0.6
 41
-30.0
 62
     5
 63
     7
421
 16777215
 74
     0
 91
        4
 64
     7
 65
   257
 75
     1
175
     1
 42
1.0
 92
        8
 66
     7
 43
1.0
 76
     1
 77
     6
 78
     2
 67
     7
 79
     5
170
     0
171
     0
290
     0
174
     0
 93
        1
 44
0.0
173
     0
291
     1
 45
0.0
  0
VISUALSTYLE
  5
35
102
{ACAD_REACTORS
330
29
102
}
330
29
100
AcDbVisualStyle
  2
Brighten
 70
    12
 71
     2
 72
     2
 73
     0
 90
        0
 40
-0.6
 41
-30.0
 62
     5
 63
     7
421
 16777215
 74
     1
 91
        4
 64
     7
 65
   257
 75
     1
175
     1
 42
1.0
 92
        8
 66
     7
 43
1.0
 76
     1
 77
     6
 78
     2
 67
     7
 79
     5
170
     0
171
     0
290
     0
174
     0
 93
        1
 44
50.0
173
     0
291
     1
 45
0.0
  0
VISUALSTYLE
  5
39
102
{ACAD_REACTORS
330
29
102
}
330
29
100
AcDbVisualStyle
  2
ColorChange
 70
    16
 71
     2
 72
     2
 73
     3
 90
        0
 40
-0.6
 41
-30.0
 62
     5
 63
     8
421
  8421504
 74
     1
 91
        4
 64
     7
 65
   257
 75
     1
175
     1
 42
1.0
 92
        8
 66
     8
424
  8421504
 43
1.0
 76
     1
 77
     6
 78
     2
 67
     7
 79
     5
170
     0
171
     0
290
     0
174
     0
 93
        1
 44
0.0
173
     0
291
     1
 45
0.0
  0
VISUALSTYLE
  5
32
102
{ACAD_REACTORS
330
29
102
}
330
29
100
AcDbVisualStyle
  2
Conceptual
 70
     9
 71
     3
 72
     2
 73
     0
 90
        0
 40
-0.6
 41
-30.0
 62
     5
 63
     7
421
 16777215
 74
     2
 91
        2
 64
     7
 65
   257
 75
     1
175
     1
 42
40.0
 92
        8
 66
     7
 43
1.0
 76
     1
 77
     6
 78
     2
 67
     7
 79
     3
170
     0
171
     0
290
     0
174
     0
 93
        1
 44
0.0
173
     0
291
     0
 45
0.0
  0
VISUALSTYLE
  5
34
102
{ACAD_REACTORS
330
29
102
}
330
29
100
AcDbVisualStyle
  2
Dim
 70
    11
 71
     2
 72
     2
 73
     0
 90
        0
 40
-0.6
 41
-30.0
 62
     5
 63
     7
421
 16777215
 74
     1
 91
        4
 64
     7
 65
   257
 75
     1
175
     1
 42
1.0
 92
        8
 66
     7
 43
1.0
 76
     1
 77
     6
 78
     2
 67
     7
 79
     5
170
     0
171
     0
290
     0
174
     0
 93
        1
 44
-50.0
173
     0
291
     1
 45
0.0
  0
VISUALSTYLE
  5
38
102
{ACAD_REACTORS
330
29
102
}
330
29
100
AcDbVisualStyle
  2
Facepattern
 70
    15
 71
     2
 72
     2
 73
     0
 90
        0
 40
-0.6
 41
-30.0
 62
     5
 63
     7
421
 16777215
 74
     1
 91
        4
 64
     7
 65
   257
 75
     1
175
     1
 42
1.0
 92
        8
 66
     7
 43
1.0
 76
     1
 77
     6
 78
     2
 67
     7
 79
     5
170
     0
171
     0
290
     0
174
     0
 93
        1
 44
0.0
173
     0
291
     1
 45
0.0
  0
VISUALSTYLE
  5
2A
102
{ACAD_REACTORS
330
29
102
}
330
29
100
AcDbVisualStyle
  2
Flat
 70
     0
 71
     2
 72
     1
 73
     1
 90
        2
 40
-0.6
 41
30.0
 62
     5
 63
     7
421
 16777215
 74
     0
 91
        4
 64
     7
 65
   257
 75
     1
175
     1
 42
1.0
 92
        8
 66
     7
 43
1.0
 76
     1
 77
     6
 78
     2
 67
     7
 79
     5
170
     0
171
     0
290
     0
174
     0
 93
       13
 44
0.0
173
     0
291
     1
 45
0.0
  0
VISUALSTYLE
  5
2B
102
{ACAD_REACTORS
330
29
102
}
330
29
100
AcDbVisualStyle
  2
FlatWithEdges
 70
     1
 71
     2
 72
     1
 73
     1
 90
        2
 40
-0.6
 41
30.0
 62
     5
 63
     7
421
 16777215
 74
     1
 91
        4
 64
     7
 65
   257
 75
     1
175
     1
 42
1.0
 92
        0
 66
   257
 43
1.0
 76
     1
 77
     6
 78
     2
 67
     7
 79
     5
170
     0
171
     0
290
     0
174
     0
 93
       13
 44
0.0
173
     0
291
     1
 45
0.0
  0
VISUALSTYLE
  5
2C
102
{ACAD_REACTORS
330
29
102
}
330
29
100
AcDbVisualStyle
  2
Gouraud
 70
     2
 71
     2
 72
     2
 73
     1
 90
        2
 40
-0.6
 41
30.0
 62
     5
 63
     7
421
 16777215
 74
     0
 91
        4
 64
     7
 65
   257
 75
     1
175
     1
 42
1.0
 92
        0
 66
     7
 43
1.0
 76
     1
 77
     6
 78
     2
 67
     7
 79
     5
170
     0
171
     0
290
     0
174
     0
 93
       13
 44
0.0
173
     0
291
     1
 45
0.0
  0
VISUALSTYLE
  5
2D
102
{ACAD_REACTORS
330
29
102
}
330
29
100
AcDbVisualStyle
  2
GouraudWithEdges
 70
     3
 71
     2
 72
     2
 73
     1
 90
        2
 40
-0.6
 41
30.0
 62
     5
 63
     7
421
 16777215
 74
     1
 91
        4
 64
     7
 65
   257
 75
     1
175
     1
 42
1.0
 92
        0
 66
   257
 43
1.0
 76
     1
 77
     6
 78
     2
 67
     7
 79
     5
170
     0
171
     0
290
     0
174
     0
 93
       13
 44
0.0
173
     0
291
     1
 45
0.0
  0
VISUALSTYLE
  5
37
102
{ACAD_REACTORS
330
29
102
}
330
29
100
AcDbVisualStyle
  2
Linepattern
 70
    14
 71
     2
 72
     2
 73
     0
 90
        0
 40
-0.6
 41
-30.0
 62
     5
 63
     7
421
 16777215
 74
     1
 91
        4
 64
     7
 65
   257
 75
     7
175
     7
 42
1.0
 92
        8
 66
     7
 43
1.0
 76
     1
 77
     6
 78
     2
 67
     7
 79
     5
170
     0
171
     0
290
     0
174
     0
 93
        1
 44
0.0
173
     0
291
     1
 45
0.0
  0
VISUALSTYLE
  5
33
102
{ACAD_REACTORS
330
29
102
}
330
29
100
AcDbVisualStyle
  2
Realistic
 70
     8
 71
     2
 72
     2
 73
     0
 90
        0
 40
-0.6
 41
-30.0
 62
     5
 63
     7
421
 16777215
 74
     1
 91
        0
 64
     7
 65
   257
 75
     1
175
     1
 42
1.0
 92
        8
 66
     8
424
  7895160
 43
1.0
 76
     1
 77
     6
 78
     2
 67
     7
 79
     5
170
     0
171
     0
290
     0
174
     0
 93
       13
 44
0.0
173
     0
291
     0
 45
0.0
  0
VISUALSTYLE
  5
36
102
{ACAD_REACTORS
330
29
102
}
330
29
100
AcDbVisualStyle
  2
Thicken
 70
    13
 71
     2
 72
     2
 73
     0
 90
        0
 40
-0.6
 41
-30.0
 62
     5
 63
     7
421
 16777215
 74
     1
 91
        4
 64
     7
 65
   257
 75
     1
175
     1
 42
1.0
 92
       12
 66
     7
 43
1.0
 76
     1
 77
     6
 78
     2
 67
     7
 79
     5
170
     0
171
     0
290
     0
174
     0
 93
        1
 44
0.0
173
     0
291
     1
 45
0.0
  0
DICTIONARYVAR
  5
46E
102
{ACAD_REACTORS
330
46B
102
}
330
46B
100
DictionaryVariables
280
     0
  1
1:1
  0
DICTIONARYVAR
  5
46D
102
{ACAD_REACTORS
330
46B
102
}
330
46B
100
DictionaryVariables
280
     0
  1
STANDARD
  0
DICTIONARYVAR
  5
46C
102
{ACAD_REACTORS
330
46B
102
}
330
46B
100
DictionaryVariables
280
     0
  1
STANDARD
  0
DICTIONARY
  5
1A
330
19
100
AcDbDictionary
280
     1
281
     1
  3
BUMPTILE
360
1C
  3
DIFFUSETILE
360
1B
  3
OPACITYTILE
360
1F
  3
REFLECTIONTILE
360
1E
  3
REFRACTIONTILE
360
20
  3
SPECULARTILE
360
1D
  0
DICTIONARY
  5
12
330
11
100
AcDbDictionary
280
     1
281
     1
  3
BUMPTILE
360
14
  3
DIFFUSETILE
360
13
  3
OPACITYTILE
360
17
  3
REFLECTIONTILE
360
16
  3
REFRACTIONTILE
360
18
  3
SPECULARTILE
360
15
  0
DICTIONARY
  5
22
330
21
100
AcDbDictionary
280
     1
281
     1
  3
BUMPTILE
360
24
  3
DIFFUSETILE
360
23
  3
OPACITYTILE
360
27
  3
REFLECTIONTILE
360
26
  3
REFRACTIONTILE
360
28
  3
SPECULARTILE
360
25
  0
DICTIONARY
  5
46F
330
6D
100
AcDbDictionary
280
     1
281
     1
  3
ACAD_ROUNDTRIP_2008_TABLESTYLE_CELLSTYLEMAP
360
470
  0
XRECORD
  5
1C
102
{ACAD_REACTORS
330
1A
102
}
330
1A
100
AcDbXrecord
280
     1
270
     1
271
     1
  0
XRECORD
  5
1B
102
{ACAD_REACTORS
330
1A
102
}
330
1A
100
AcDbXrecord
280
     1
270
     1
271
     1
  0
XRECORD
  5
1F
102
{ACAD_REACTORS
330
1A
102
}
330
1A
100
AcDbXrecord
280
     1
270
     1
271
     1
  0
XRECORD
  5
1E
102
{ACAD_REACTORS
330
1A
102
}
330
1A
100
AcDbXrecord
280
     1
270
     1
271
     1
  0
XRECORD
  5
20
102
{ACAD_REACTORS
330
1A
102
}
330
1A
100
AcDbXrecord
280
     1
270
     1
271
     1
  0
XRECORD
  5
1D
102
{ACAD_REACTORS
330
1A
102
}
330
1A
100
AcDbXrecord
280
     1
270
     1
271
     1
  0
XRECORD
  5
14
102
{ACAD_REACTORS
330
12
102
}
330
12
100
AcDbXrecord
280
     1
270
     1
271
     1
  0
XRECORD
  5
13
102
{ACAD_REACTORS
330
12
102
}
330
12
100
AcDbXrecord
280
     1
270
     1
271
     1
  0
XRECORD
  5
17
102
{ACAD_REACTORS
330
12
102
}
330
12
100
AcDbXrecord
280
     1
270
     1
271
     1
  0
XRECORD
  5
16
102
{ACAD_REACTORS
330
12
102
}
330
12
100
AcDbXrecord
280
     1
270
     1
271
     1
  0
XRECORD
  5
18
102
{ACAD_REACTORS
330
12
102
}
330
12
100
AcDbXrecord
280
     1
270
     1
271
     1
  0
XRECORD
  5
15
102
{ACAD_REACTORS
330
12
102
}
330
12
100
AcDbXrecord
280
     1
270
     1
271
     1
  0
XRECORD
  5
24
102
{ACAD_REACTORS
330
22
102
}
330
22
100
AcDbXrecord
280
     1
270
     1
271
     1
  0
XRECORD
  5
23
102
{ACAD_REACTORS
330
22
102
}
330
22
100
AcDbXrecord
280
     1
270
     1
271
     1
  0
XRECORD
  5
27
102
{ACAD_REACTORS
330
22
102
}
330
22
100
AcDbXrecord
280
     1
270
     1
271
     1
  0
XRECORD
  5
26
102
{ACAD_REACTORS
330
22
102
}
330
22
100
AcDbXrecord
280
     1
270
     1
271
     1
  0
XRECORD
  5
28
102
{ACAD_REACTORS
330
22
102
}
330
22
100
AcDbXrecord
280
     1
270
     1
271
     1
  0
XRECORD
  5
25
102
{ACAD_REACTORS
330
22
102
}
330
22
100
AcDbXrecord
280
     1
270
     1
271
     1
  0
CELLSTYLEMAP
  5
470
102
{ACAD_REACTORS
330
46F
102
}
330
46F
100
AcDbCellStyleMap
 90
        3
300
CELLSTYLE
  1
TABLEFORMAT_BEGIN
 90
        5
170
     1
 91
        0
 92
    32768
 62
   257
 93
        1
300
CONTENTFORMAT
  1
CONTENTFORMAT_BEGIN
 90
        0
 91
        0
 92
      512
 93
        0
300

 40
0.0
140
1.0
 94
        5
 62
     0
340
5D
144
0.25
309
CONTENTFORMAT_END
171
     0
 94
        0
309
TABLEFORMAT_END
  1
CELLSTYLE_BEGIN
 90
        1
 91
        1
300
_TITLE
309
CELLSTYLE_END
300
CELLSTYLE
  1
TABLEFORMAT_BEGIN
 90
        5
170
     1
 91
        0
 92
        0
 62
   257
 93
        1
300
CONTENTFORMAT
  1
CONTENTFORMAT_BEGIN
 90
        0
 91
        0
 92
      512
 93
        0
300

 40
0.0
140
1.0
 94
        5
 62
     0
340
5D
144
0.18
309
CONTENTFORMAT_END
171
     0
 94
        0
309
TABLEFORMAT_END
  1
CELLSTYLE_BEGIN
 90
        2
 91
        1
300
_HEADER
309
CELLSTYLE_END
300
CELLSTYLE
  1
TABLEFORMAT_BEGIN
 90
        5
170
     1
 91
        0
 92
        0
 62
   257
 93
        1
300
CONTENTFORMAT
  1
CONTENTFORMAT_BEGIN
 90
        0
 91
        0
 92
      512
 93
        0
300

 40
0.0
140
1.0
 94
        2
 62
     0
340
5D
144
0.18
309
CONTENTFORMAT_END
171
     0
 94
        0
309
TABLEFORMAT_END
  1
CELLSTYLE_BEGIN
 90
        3
 91
        2
300
_DATA
309
CELLSTYLE_END
  0
ENDSEC
  0
EOF
